MUZBANK



A Most Complete Bank Of Music Information

МУЗЫКАЛЬНО-ИНФОРМАЦИОННЫЙ БАНК

Поиск по сайту







    CCharles Ray • Hit The Road Jack (аккорды и текст - chords & lyrics)


    1291

    Print

    Видео «Hit The Road Jack (Charles Ray)»

    Видео клипы к песне подбираются автоматически сайтом youtube. Возможны некоторые несоответствия клипов песне.

    ↑ Спрятать рекламу ↑



    Download


    I figured out how to play this by just messing around. Play this over and over
    for the whole song. You can also add your own vareations of how you hit the
    string. It goes mildly slow/fast.
    
          verse G:-5-3-1-0-3-5-3-1-0-3-5-3-1-0-3-5-3-1-0-3-5-3-1-0-3-
                D:---------------------------------------------------
                A:---------------------------------------------------
                D:---------------------------------------------------
    
            verse:hold the notes short. no long notes should be played
    
              you could also play it like this
    
               G:--3-1-0-3--3-1-0-3--3-1-0-3--3-1-0-3--3-1-0-3--3-1-0-3--
               D:-1--------1--------1--------1--------1--------1--------1
               A:--------------------------------------------------------
               D:--------------------------------------------------------
             
               one more way you could play this song
    
               G:-15-13-11-10-13-15-13-11-10-15-13-11-10-15-13-11-10
               D:---------------------------------------------------
               A:---------------------------------------------------
               D:--------------------------------------------------- 
              
       THESE ARE ALL THE WAYS I COULD COME UP WITH. PLAY THEM ON THE STRINGS
    YOU WANT BUT THIS IS HOW IT GOES.
     
    
    LYRICS:
    
    
    
            Am   G     F              E7   Am       G        F        E7
    Hit the road Jack. Don't you come back no more, no more, no more, no
    more.
            Am   G       F               E7      Am  G F E7
    Hit the road Jack and don't you come back no more.
    
       Am        G            F           E7
    Oh woman, oh woman, don't treat me so mean,
               Am      G          F    E7 
    You're the meanest woman I've ever seen.
      Am       G   F   E7
    I guess if you say so
         Am      G       F          E7
    I'll have to pack my things and go.
    
    
    Hit the road Jack and don't you come back no more, no more, no more, no
    more.
    Hit the road Jack and don't you come back no more.
    
    
    Now baby, listen baby, don't-a treat me this-a way
    For I'll be back on my feet some day.
    
    Don't care if you do 'cause it's understood
    you ain't got no money you just ain't no good.
    
    Well, I guess if you say so
    I'd have to pack my things and go. (That's right)
    
    Hit the road Jack and don't you come back no more, no more, no more, no
    more.
    Hit the road Jack and don't you come back no more.
    
    (Repeat and fade)
    Don't you come back no more.
    
    
    
    e|----0--x-----0--x-------1--x-----0--x--|
    B|----1--x-----1--x-------1--x-----0--x--|
    G|----2--x-----2--x-------2--x-----1--x--|
    D|----2--x-----2--x-------3--x-----2--x--|
    A|-0-----x--------x-------3--x-----2--x--|
    E|-------x--3-----x--1--1----x-0--0---x--|
    
    
    e|-----------|------------------5-5-7/8-8-5~-|-----------|------------------|
    B|-5---5~----|--------------5-5--------------|-5---5~----|------------------|
    G|---7-------|---5-5-7-7-5-------------------|---7-------|---5-5-7-7-5------|
    D|--------7~-|-7-----------------------------|--------7~-|-7-----------/7~--|
    A|-----------|-------------------------------|-----------|------------------|
    E|-----------|-------------------------------|-----------|------------------|
    
    

    Тональность:

    Нет текста!



    Назад

    • Комментарии Facebook ()
    • Комментарии ВКонтакте



    Добавить в Избранное Браузера
    Сохранить здесь Очистить


    x

    0


    +
    -

    +
    -

    -

    Авторизация





    Зарегистрироваться

    M

    Дата и время

    • 00:56:08
       

    Социальные ссылки


    Наши приложения

    • Muzbank App Play Market
    • Muzbank Amazon App