MUZBANK



A Most Complete Bank Of Music Information

МУЗЫКАЛЬНО-ИНФОРМАЦИОННЫЙ БАНК

Поиск по сайту







    CChevelle • Family System (аккорды и текст - chords & lyrics)


    320

    Print

    Видео «Family System (Chevelle)»

    Видео клипы к песне подбираются автоматически сайтом youtube. Возможны некоторые несоответствия клипов песне.

    ↑ Спрятать рекламу ↑



    Download


     
    
    
    chevelle
    
    -family system-
    tuning: b f# b e g# c#  low to high
    tabbed by Cory George email: sKiTsoFraNiaK@hotmail.com
    This is as correct as they come. But as always never guaranteed
    to be 100% unless it?s written by the artists themselves.
    
    If you need the bass email me.
    
    (#) - harmonic for all notes and chords within the brakets
    
    intro
    |----------------------------------------------0--------------|
    |----0---0---0---0---0---0---0---0---0---0---0---0------------|
    |o-4---4---4---4---4---4---4---4---4---4---5-----------------o|
    |o-----------------------------------------------------------o|
    |-------------------------------------------------------------|
    |-------------------------------------------------------------|
    
    |----------------------------------------------0-------------|
    |----0---0---0---0---0---0---0---0---0---0---0---0-----------|
    |o-4---4--4brb-4---4--4brb-4---4--4brb-4---5----------------o|
    |o----------------------------------------------------------o|
    |------------------------------------------------------------|
    |------------------------------------------------------------|
    
    riff a 
    this is tricky so watch out
    |-------------------------------|-----------|--------|
    |-------------------------------|-----------|--------|
    |-------------------------------|-----------|--------|
    |-0-0-0-7-3-0-5-3-0-3-5--00-0-0-|-----------|-0--0-0-|
    |-0-0-0-7-3-0-5-3-0-3-5--00-0-0-|-----------|-0--0-0-|
    |-0-0-0-7-3-0-5-3-0-3-5--00-0-0-|-7-3-0-5-3-|-0--0-0-|
    pm    . . . . . . . . .  .. 
    
    |-------------------------------|---------|
    |-------------------------------|---------|
    |-------------------------------|---------|
    |-0-0-0-7-3-0-5-3-0-3-5--00-0-0-|---------|
    |-0-0-0-7-3-0-5-3-0-3-5--00-0-0-|---------|
    |-0-0-0-7-3-0-5-3-0-3-5--00-0-0-|-7-3-0-5-|
    pm    . . . . . . . . .  .. 
    
    riff b
     x3      
    |---------------------------|------------------------|
    |---------------------------|------------------------|
    |o-------------------------o|------------------------|
    |o-7-3-0-7-3-0-5-3-0-3-5-0-o|-7-3-0-7-3-0-5--(3-3-3)-|
    |--7-3-0-7-3-0-5-3-0-3-5-0--|-7-3-0-7-3-0-5--(3-3-3)-|
    |--7-3-0-7-3-0-5-3-0-3-5-0--|-7-3-0-7-3-0-5--(3-3-3)-|
    
    riff c x4
    |-----------------------------------------------------------|
    |-----------------------------------------------------------|
    |-----------------------------------------------------------|
    |-7-3-0-7-3-0-5-3-0-3-5-0-----------------------------------|
    |-7-3-0-7-3-0-5-3-0-3-5-0-----------------------------------|
    |-7-3-0-7-3-0-5-3-0-3-5-0-----------------------------------|
    
    
    verse
    |-----------------------------------------------------------------|
    |-----------------------------------------------------------------|
    |o----------------------------------------------------------------|
    |o-3---3--3-3--3-3-3-3--3---3--3-35--5-5-5-0-0---0--0-0--0-0-0-0-|
    |--3---3--3-3--3-3-3-3--3---3--3-35--5-5-5-0-0---0--0-0--0-0-0-0-|
    |--3---3--3-3--3-3-3-3--3---3--3-35--5-5-5-0-0---0--0-0--0-0-0-0-|
    pm             . . . .                                    . . . .  
    
    |----------------------------------------------------------------|
    |----------------------------------------------------------------|
    |-0---0--0-0-5-5-5-5-5--3---3--3-3--3-3-3-3--3---3--3-35--5-5-5-|
    |-0---0--0-0-5-5-5-5-5--3---3--3-3--3-3-3-3--3---3--3-35--5-5-5-|
    |-0---0--0-0-5-5-5-5-5--3---3--3-3--3-3-3-3--3---3--3-35--5-5-5-|
    pm                                  . . . .                      
    
    
    riff d      
    |-------------|-------------|-------------|--------------------|
    |-------------|-------------|-------------|--------------------|
    |-------------|-------------|-------------|--------------------|
    |-7-3-0-7-3-0-|-------------|-7-3-0-7-3-0-|--------------------|
    |-7-3-0-7-3-0-|-------------|-7-3-0-7-3-0-|--------------------|
    |-7-3-0-7-3-0-|-5-3-0-3-5-0-|-7-3-0-7-3-0-|-5-3-0-3-5-0--------|
    pm. . . . . .                 . . . . . . 
    
    |-------------|-------------|---------------|
    |-------------|-------------|---------------|
    |-------------|-------------|---------------|
    |-7-3-0-7-3-0-|-------------|-7-3-0-7-3-0-5-|
    |-7-3-0-7-3-0-|-------------|-7-3-0-7-3-0-5-|
    |-7-3-0-7-3-0-|-5-3-0-3-5-0-|-7-3-0-7-3-0-5-|
    pm. . . . . .                 . . . . . . .
    
    riff c
    verse
    
    bridge 
    x2 
    |-----------------------------------------------------------|
    |-----------------------------------------------------------|
    |o-5p4-4-4--4--------5p4-4-4--4----------------------------o|
    |o------------0-----------------0--0--0--------------------o|
    |-------------0-----------------0--0--0---------------------|
    |-------------0-----------------0--0--0---------------------|
    pm                              .  .  .
    
    |---------------------------------------------------------|
    |---------------------------------------------------------|
    |-5p4-4-4--4--------5p4-4-4--4----------------------------|
    |-------------0----------------0--0--0--------------------|
    |-------------0----------------0--0--0--------------------|
    |-------------0----------------0--0--0--------------------|
    
    |---------------------------------------------------------|
    |---------------------------------------------------------|
    |-5p4-4-4--4--------5p4-4-4--4-5p4-4-4--4-----------------|
    |-------------0-------------------------------------------|
    |-------------0-------------------------------------------|
    |-------------0-------------------------------------------|
    
    chorus x3
    |------------------------------------------------------------|
    |------------------------------------------------------------|
    |o-------------------------------------5-5-5-4-4-4-----------|
    |o-3---3-3-3-3-3---3-3-3-3-3---3-3-3-3-----------------------|
    |--3---3-3-3-3-3---3-3-3-3-3---3-3-3-3-3-3-3-2-2-2-----------|
    |--3---3-3-3-3-3---3-3-3-3-3---3-3-3-3-----------------------|
    
    |------------------------------------------------------------|
    |------------------------------------------------------------|
    |-------------------------------------5-5-5-4-4-4-----------o|
    |-0---0-0-0-0-0---0-0-0-0-0---0-0-0-0-----------------------o|
    |-0---0-0-0-0-0---0-0-0-0-0---0-0-0-0-3-3-3-2-2-2------------|
    |-0---0-0-0-0-0---0-0-0-0-0---0-0-0-0------------------------|
    
    
    |-----------------------------------------------------------|
    |-----------------------------------------------------------|
    |-------------------------------------5-5-5-4-4-4-----------|
    |-3---3-3-3-3-3---3-3-3-3-3---3-3-3-3-------------0---------|
    |-3---3-3-3-3-3---3-3-3-3-3---3-3-3-3-3-3-3-2-2-2-0---------|
    |-3---3-3-3-3-3---3-3-3-3-3---3-3-3-3-------------0---------|
    
    intro
    riff a
    brief pick scrape
    riff b
    
    x3
    |-------------------------|--------------------------------|
    |-------------------------|--------------------------------|
    |o-2--2-2-2-2-2----------o|-2--2-2-2-2-2-5-5-5-4-4-4-------|
    |o-0--0-0-0-0-0--0-0-0-0-o|-0--0-0-0-0-0-------------------|
    |--0--0-0-0-0-0--0-0-0-0--|-0--0-0-0-0-0-3-3-3-2-2-2-------|
    |--0--0-0-0-0-0--0-0-0-0--|-0--0-0-0-0-0-------------------|
    pm               . . . . 
    
    riff c
    
    |--------------------------------------------------------|
    |--------------------------------------------------------|
    |--------------------------------------------------------|
    |-3---3--3-3--3-3-3-3--3---3--3-35--5-5-5-0-------------|
    |-3---3--3-3--3-3-3-3--3---3--3-35--5-5-5-0-------------|
    |-3---3--3-3--3-3-3-3--3---3--3-35--5-5-5-0-------------|
    pm            . . . . 
    
    intro- volume swell out
    
    end
     

    Тональность:

    Нет текста!



    Назад
    Рекомендуем посмотреть другие песни исполнителя «Chevelle»:

    • Комментарии Facebook ()
    • Комментарии ВКонтакте



    Добавить в Избранное Браузера
    Сохранить здесь Очистить


    x

    0


    +
    -

    +
    -

    -

    Авторизация





    Зарегистрироваться

    M

    Дата и время

    • 13:10:40
       

    Социальные ссылки


    Наши приложения

    • Muzbank App Play Market
    • Muzbank Amazon App