MUZBANK



A Most Complete Bank Of Music Information

МУЗЫКАЛЬНО-ИНФОРМАЦИОННЫЙ БАНК

Поиск по сайту







    CChevelle • Open (аккорды и текст - chords & lyrics)


    211

    Print

    Видео «Open (Chevelle)»

    Видео клипы к песне подбираются автоматически сайтом youtube. Возможны некоторые несоответствия клипов песне.

    ↑ Спрятать рекламу ↑



    Download



     
    
    
    -------------------------------------------------------------------------------
    			     Open - Chevelle
    -------------------------------------------------------------------------------
    
    Tuning: D A D G B e
    
    0:00-0:17
    e|-------------------------------------------------------|
    B|-------------------------------------------------------|
    G|-------------------------------------------------------|
    D|-------------------------------------------------------|Repeat X 16
    A|-------------------------------------------------------|
    D|-0-0-0-0-0-X-------------------------------------------|
    
    0:18-0:26
    e|------------|
    B|------------|
    G|-9----------|
    D|-X----------| Keep playing this note really fast
    A|-7----------|
    D|------------|
    
    0:27-0:43
    e|-------------------------------------------------------|
    B|-------------------------------------------------------|
    G|-------------------------------------------------------|
    D|-------------------------------------------------------|Repeat X 16
    A|-------------------------------------------------------|
    D|-0-0-0-0-0-X-------------------------------------------|
    
    
    0:44-0:51
    e|------------|
    B|------------|
    G|-9----------|
    D|-X----------| Keep playing this note really fast
    A|-7----------|
    D|------------|
    
    0:52-1:07
    e|-------------------------------------------------------|
    B|-------------------------------------------------------|
    G|-------------------------------------------------------|
    D|-------------------------------------------------------|Repeat X 16
    A|-------------------------------------------------------|
    D|-0-0-0-0-0-X-------------------------------------------|
    
    1:08-1:15
    e|------------|
    B|------------|
    G|-9----------|
    D|-X----------| Keep playing this note really fast
    A|-7----------|
    D|------------|
    
    1:16-1:19
    Pause
    
    1:20-1:35
    e|---|      |---------------|
    B|---|      |---------------|
    G|---|      |---------------|
    D|-0-| X 1  |-0-0-----------|Repeat X 15
    A|-0-|      |-0-0-----------|
    D|-0-|      |-0-0-----------|
    
    1:36-1:44
    e|------------|
    B|------------|
    G|-9----------|
    D|-X----------| Keep playing this note really fast
    A|-7----------|
    D|------------|
    
    1:45-end
    e|---------------| 
    B|---------------|
    G|---------------|
    D|-0-0-----------|Repeat X 16
    A|-0-0-----------|
    D|-0-0-----------|
    
    This should be right but I do make mistakes so tell me if something is wrong.
     

    Тональность:

    Нет текста!



    Назад
    Рекомендуем посмотреть другие песни исполнителя «Chevelle»:

    • Комментарии Facebook ()
    • Комментарии ВКонтакте



    Добавить в Избранное Браузера
    Сохранить здесь Очистить


    x

    0


    +
    -

    +
    -

    -

    Авторизация





    Зарегистрироваться

    M

    Дата и время

    • 13:22:18
       

    Социальные ссылки


    Наши приложения

    • Muzbank App Play Market
    • Muzbank Amazon App