MUZBANK



A MOST COMPLETE BANK OF MUSIC INFORMATION

МУЗЫКАЛЬНО-ИНФОРМАЦИОННЫЙ БАНК







    CChevelle • Send The Pain Below (аккорды и текст - chords & lyrics)


    352

    Print

    Видео «Send The Pain Below (Chevelle)»

    Видео клипы к песне подбираются автоматически сайтом youtube. Возможны некоторые несоответствия клипов песне.

    ↑ Спрятать рекламу ↑






     
    
    
    ***            CHEVELLE                  ***
                    ***        SEND THE PAIN BELOW           ***
                    ***         WONDER WHATS NEXT            ***
    
    I know this song is tuned at  C-Sharp Standard (low to high C# F# B E G# C#), 
    but I tried to tab this in standard tuning...
    
    -INTRO(x1)
    e----------------------------------------------
    B----------------------------------------------
    G-------------------------8-8-8-8-8-8----------
    D-------------------------x-x-x-x-x-x-2-2-2-2-2
    A-9-9-9-9-9-9-6-6-6-6-6-6-9-9-9-9-9-9-2-2-2-2-2
    E-7-7-7-7-7-7-4-4-4-4-4-4-7-7-7-7-7-7-0-0-0-0-0-
    
    -Pre verse-
     hold both
    e-------
    B-------
    G------8
    D------x
    A-6----9
    E-4----7
    
    -Verse 1-clean
    e----------------------
    B----------------------
    G-8-8-8-8-8-8-8-8-8-8-6- 
    D-x-x-x-x-x-x-x-x-x-x-x   |(x4)
    A-6-6-6-6-6-6-6-6-6-6-4  /
    E----------------------
    
    e---------------------------------------------------- 
    B----------------------------------------------------
    G-11-11-11-11-11-8-8-8-8-8-8- 8-8-8-8-8-4-4-4-4-4-4-4  
    D-x--x--x--x--x--x-x-x-x-x-x- x-x-x-x-x-x-x-x-x-x-x-x   |(x2)
    A-9--9--9--9--9--6-6-6-6-6-6- 6-6-6-6-6-2-2-2-2-2-2-2  /
    E----------------------------------------------------
    
    -Chorus 1(x2)-Distortion
    e----------------------------------------------
    B----------------------------------------------
    G-------------------------8-8-8-8-8-8----------
    D-------------------------x-x-x-x-x-x-2-2-2-2-2
    A-9-9-9-9-9-9-6-6-6-6-6-6-9-9-9-9-9-9-2-2-2-2-2
    E-7-7-7-7-7-7-4-4-4-4-4-4-7-7-7-7-7-7-0-0-0-0-0-
    
    -Verse 2-clean
    e----------------------
    B----------------------
    G-8-8-8-8-8-8-8-8-8-8-6- 
    D-x-x-x-x-x-x-x-x-x-x-x   |(x4)
    A-6-6-6-6-6-6-6-6-6-6-4  /
    E----------------------
    
    e---------------------------------------------------- 
    B----------------------------------------------------
    G-11-11-11-11-11-8-8-8-8-8-8- 8-8-8-8-8-4-4-4-4-4-4-4  
    D-x--x--x--x--x--x-x-x-x-x-x- x-x-x-x-x-x-x-x-x-x-x-x   |(x2)
    A-9--9--9--9--9--6-6-6-6-6-6- 6-6-6-6-6-2-2-2-2-2-2-2  /
    E----------------------------------------------------
    
    -Chorus 2(x2)-Distortion
    e----------------------------------------------
    B----------------------------------------------
    G-------------------------8-8-8-8-8-8----------
    D-------------------------x-x-x-x-x-x-2-2-2-2-2
    A-9-9-9-9-9-9-6-6-6-6-6-6-9-9-9-9-9-9-2-2-2-2-2
    E-7-7-7-7-7-7-4-4-4-4-4-4-7-7-7-7-7-7-0-0-0-0-0-
    
    Interlude clean (x2) im not sure about the interlude...
    e--------------------------
    B--------------------------
    G--------------------------
    D-4-4-5-5-2-2-4-4-7-5-5-2-2
    A-4-4-5-5-2-2-4-4-7-5-5-2-2
    E-2-2-3-3-0-0-2-2-5-3-3-0-0
    
    Interlude distortion(x10)
    e--------------------------
    B--------------------------
    G--------------------------
    D-4-4-5-5-2-2-4-4-7-5-5-2-2
    A-4-4-5-5-2-2-4-4-7-5-5-2-2
    E-2-2-3-3-0-0-2-2-5-3-3-0-0
    
    Chorus 3(x2)distortion-im not sure if its the verse or this,try both...
    this is what i think it is,but im not sure
    
    e----------------------------------------------
    B----------------------------------------------
    G-11-11-11-11-11-11-8-8-8-8-8-8-8-8-4-4-4-4-4-4
     

    Тональность:

    Это должно быть в ТОП-листе! - Топ-лист композиций



    Назад
    Рекомендуем посмотреть другие песни исполнителя «Chevelle»:

    • Комменты Fb ()
    • Комменты ВК



    Добавить в Избранное Браузера
    Сохранить здесь Очистить


    x

    0


    +
    -

    +
    -

    -

    Авторизация





    Зарегистрироваться

    M

    Дата и время

    • 19:06:54
       

    Социальные ссылки


    Наши приложения

    • Muzbank App Play Market
    • Muzbank Amazon App