MUZBANK



A Most Complete Bank Of Music Information

МУЗЫКАЛЬНО-ИНФОРМАЦИОННЫЙ БАНК

Поиск по сайту







    CChevelle • Send The Pain Below (аккорды и текст - chords & lyrics)


    178

    Print

    Видео «Send The Pain Below (Chevelle)»

    Видео клипы к песне подбираются автоматически сайтом youtube. Возможны некоторые несоответствия клипов песне.

    ↑ Спрятать рекламу ↑



    Download



     
    
    
    Chevelle - Send The Pain Below
    
    Tabbed: Chris Gatzka
    
    TUNE C3 G3 C4 F4 A4 D5
    
    
    Intro/Chorus
    |---------------|
    |---------------|
    |--------9--10--|
    |-10--7--x--10--| X1   Distortion
    |-10--7--7--8---|
    |-10--7---------|
    
    
    Bridge (After Intro)
    |----|
    |----|
    |----|
    |-10-| Let Ring   
    |-10-|
    |-10-|
    
    Natural Harmonic       X2   Distortion
    |---|
    |---|
    |---|
    |---| Let Ring  
    |---|
    |-6-|
    
    
    
    Verse
    |---------|
    |---------|
    |-9--5--7-|
    |-x--x--x-|    X4   Clean
    |-7--3--5-|
    |---------|
    
    
    |-------------|
    |-------------|
    |-10-9--9--10-|
    |-X--7--x--10-|     x2    Clean
    |-12-7--7--8--|
    |----7--------|
    
    
    Intro/Chorus
    |---------------|
    |---------------|
    |--------9--10--|
    |-10--7--x--10--| X2   Distortion
    |-10--7--7--8---|
    |-10--7---------|
    
    
    
    Bridge (After Intro)
    |----|
    |----|
    |----|
    |-10-| Let Ring   Distortion
    |-10-|
    |-10-|
    
    
    Verse
    |---------|
    |---------|
    |-9--5--7-|
    |-x--x--x-|    X4   Clean
    |-7--3--5-|
    |---------|
    
    
    |-------------|
    |-------------|
    |-10-9--9--10-|
    |-X--7--x--10-|     x2   Clean
    |-12-7--7--8--|
    |----7--------|
    
    
    Intro/Chorus
    |---------------|
    |---------------|
    |--------9--10--|
    |-10--7--x--10--| X2   Distortion
    |-10--7--7--8---|
    |-10--7---------|
    
    
    
    Interlude
    |--------------------------|
    |--------------------------|
    |--------------------------|
    |-2-2-2-2-2-0--5-5-5-5-4-4-|   2x   Clean 
    |-2-2-2-2-2-0--5-5-5-5-4-4-|
    |-2-2-2-2-0-0--5-5-5-5-4-4-|
    
    
    
    |----------|
    |----------|
    |-Strum----|
    |----------|   Distortion
    |----------|
    |-2-----10-|
    
    
    
    Interlude 
    |--------------------------|
    |--------------------------|
    |--------------------------|
    |-2-2-2-2-2-0--5-5-5-5-4-4-|   10X   Distortion
    |-2-2-2-2-2-0--5-5-5-5-4-4-|
    |-2-2-2-2-0-0--5-5-5-5-4-4-|
    
    
    |----------|
    |----------|
    |-Strum----|
    |----------|   Distortion
    |----------|
    |-2-----10-|
    
    
    
    Intro/Chorus
    |---------------|
    |---------------|
    |--------9--10--|
    |-10--7--x--10--| X4   Distortion
    |-10--7--7--8---|
    |-10--7---------|
    
    
    
    End
    |----|
    |----|
    |----|
    |-10-|  Let Ring    Distortion
    |-10-|
    |-10-|
    Volume balance
     

    Тональность:

    Нет текста!



    Назад
    Рекомендуем посмотреть другие песни исполнителя «Chevelle»:

    • Комментарии Facebook ()
    • Комментарии ВКонтакте



    Добавить в Избранное Браузера
    Сохранить здесь Очистить


    x

    0


    +
    -

    +
    -

    -

    Авторизация





    Зарегистрироваться

    M

    Дата и время

    • 16:48:13
       

    Социальные ссылки


    Наши приложения

    • Muzbank App Play Market
    • Muzbank Amazon App