MUZBANK



A Most Complete Bank Of Music Information

МУЗЫКАЛЬНО-ИНФОРМАЦИОННЫЙ БАНК

Поиск по сайту







    CChevelle • The Red (аккорды и текст - chords & lyrics)


    183

    Print

    Видео «The Red (Chevelle)»

    Видео клипы к песне подбираются автоматически сайтом youtube. Возможны некоторые несоответствия клипов песне.

    ↑ Спрятать рекламу ↑



    Download



     
    
    
    Band:Chevelle
    Song:The Red
     = slide
    
    (0:10)
    Verse
    E |-----------------------------------|  Play this 3 times.
    B |-----------------------------------|
    F#|7-7-9-7------------7-7-9-7---------|
    C#|-------0-3-3-0-3-0----------8-8-8-8|
    
    
    
    |-----------------------------|  
    |-----------------------------|
    |7-7-9-7-------------7-7-9-7--|
    |--------0--3-3-0-3-0------0-8|
    
    
    Chorus  (0:31)
    
    |---------------------------|
    |---------------------------|
    |---------------------------|
    |0-0-0-0-0-0-0-3-3-3-3-3-3-0|
    
    
    |---------------------------------------------|
    |---------------------------------------------|
    |5-5-5-5-5-5-5-5-5-5-5-5-5-5-5-5--------------|
    |--------------------------------0-0-0-0-0-0|
    
    
    |-----------------------------------------------------|
    |-----------------------------------------------------|
    |--------------5-5-5-5-5-5-5-5-5-0-2-2-2-2-2-2-2-2-2-2|
    |3-3-3-3-3-3-0----------------------------------------|
    
    
    |--------------------------------------|
    |--------------------------------------|
    |-7-7-9-7--------------7-7-9-7---------|
    |----------0-3-3-0-3-0----------8-8-8-8|
    
    
    Verse(1:02)
    |--------------------------------------|      Play this 4 times
    |--------------------------------------|
    |7-7-9-7--------------7-7-9-7----------|
    |---------0-3-3-0-3-0---------0-8-8-8-8|
    
    
    Chorus(1:43)
    
    |----------------------------|
    |----------------------------|
    |----------------------------|
    |0-0-0-0-0-0-0-3-3-3-3-3-3-0-|
    
    
    |--------------------------------------------------|
    |--------------------------------------------------|
    |5-5-5-5-5-5-5--5--5-5--5--5-5--5-5-5-------------|
    |-------------------------------------0-0-0-0-0-0-0|
    
    
    Inertlude(2:03)
    
    |----------------------------------------|    Play this 3 times
    |----------------------------------------|
    |7-7-9-7--------------7-7-9-7------------|
    |---------0-3-3-0-3-0----------0-8-8--8-8|
    
    
    |---------------------------|
    |---------------------------|
    |0-0-0-0-0-0-0-3-3-3-3-3-3-0|
    |---------------------------|
                                              Play these two lines twice.
    
    |-----------------------------------------------|
    |-----------------------------------------------|
    |5-5-5-5-5-5-5-5-5-5-5-5-5-5-5-5---------------|
    |---------------------------------0-0-0-00-0-0-0|
    
    Bridge(3:05)
    
    |--------------------------------------|      Play this 4 times.
    |--------------------------------------|
    |7-7-9-7--------------7-7-9-7----------|
    |---------0-3-3-0-3-0---------0-8-8-8-8|
    
    
    |-------------------|
    |-------------------|
    |-------------------|
    |8-8--8-8--7-7--7-7-|
    
    
    Outro(3:31)
    
    |-------|
    |-------|  Let this note ring out.
    |-------|
    |8------|
     

    Тональность:

    Нет текста!



    Назад
    Рекомендуем посмотреть другие песни исполнителя «Chevelle»:

    • Комментарии Facebook ()
    • Комментарии ВКонтакте



    Добавить в Избранное Браузера
    Сохранить здесь Очистить


    x

    0


    +
    -

    +
    -

    -

    Авторизация





    Зарегистрироваться

    M

    Дата и время

    • 23:38:51
       

    Социальные ссылки


    Наши приложения

    • Muzbank App Play Market
    • Muzbank Amazon App