MUZBANK



A Most Complete Bank Of Music Information

МУЗЫКАЛЬНО-ИНФОРМАЦИОННЫЙ БАНК

Поиск по сайту







    CChicosci • Colonized (аккорды и текст - chords & lyrics)


    218

    Print

    Видео «Colonized (Chicosci)»

    Видео клипы к песне подбираются автоматически сайтом youtube. Возможны некоторые несоответствия клипов песне.

    ↑ Спрятать рекламу ↑



    Download


     LEGEND:
    
    / or    - slide up or down
    p        - pull off
    h	 - hammer on
    p.m. --- - palm mute
    b        - bend
    n.h. --- - natural harmonics
    
    Tuning: Tune guitar whole step down (DGCFAD) then drop d. 
    
    Intro: 
    D ---------
    A ---------
    F ---------
    C --0-0-00-(12x)
    G --0-0-00-
    C --0-0-00-
    p.m.- - --
    
    Gtr.1
    D -----------
    A -----------
    F -----------(8x)
    C --0-010-01-
    G --0-010-01-
    C --0-010-01-
    
    Gtr.2
    D ----------------------------------
    A -- -------------------------------
    F ----------------------------------
    C --54-54-4-54-454-54-54-4-54-5-4---(4x)
    G ----------------------------------
    C ----------------------------------
    p.h.-- -- - -- --- -- -- - -- - -
    
    Verse:
    Gtr.1
    D ----------------------------------------
    A ----------------------------------------
    F --(7)-------(7)-(7)--(7)-----------(7)--
    C -----(7)------(7)-------(7)-----(7)-----(2x)
    G --------(7)----------------(7)----------
    C ----------------------------------------
    n.h. -  -  -   -   -  -  -   -   -
    
    Gtr.2
    D -------------5---------5---------5-----
    A ------------6--8-5----6--6-5----6--5---
    F --------5/7--------5/7-------5/7-------(2x)
    C ---------------------------------------
    G ---------------------------------------
    C ---------------------------------------
    
    D ----------
    A ----------
    F ----7-8-7-
    C --0-7-8-7-(4x)
    G --0-5-6-5-
    C --0-------
    p.m.-
    
    D --------------------------------------------------------------------------------------
    A ------------------------------------9999999999999999-10101010101010101010101010101010-
    F --7777777777777777-5555555555555555-8888888888888888-9-9-9-9-9-9-9-9-9-9-9-9-9-9-9-9--
    C --7777777777777777-3333333333333333-6666666666666666-7-7-7-7-7-7-7-7-7-7-7-7-7-7-7-7--
    G --5555555555555555-3333333333333333---------------------------------------------------
    C -------------------3333333333333333---------------------------------------------------
    
    Chorus:
    Gtr.1
    D -----------
    A -----------
    F -----------(8x)
    C --0-010-01-
    G --0-010-01-
    C --0-010-01-
    
    Gtr.2
    D ----------------------------------
    A -- -------------------------------
    F ----------------------------------
    C --54-54-4-54-454-54-54-4-54-5-4---(4x)
    G ----------------------------------
    C ----------------------------------
    p.h.-- -- - -- --- -- -- - -- - -
    
    repeat verse & chorus
    
    D ----
    A ----
    F ----
    C --0-
    G --0-
    C --0-
    
    D --------------------------------------------------------------------------------------
    A ------------------------------------9999999999999999-10101010101010101010101010101010-
    F --7777777777777777-5555555555555555-8888888888888888-9-9-9-9-9-9-9-9-9-9-9-9-9-9-9-9--
    C --7777777777777777-3333333333333333-6666666666666666-7-7-7-7-7-7-7-7-7-7-7-7-7-7-7-7--(2x)
    G --5555555555555555-3333333333333333---------------------------------------------------
    C -------------------3333333333333333---------------------------------------------------
    
    repeat intro till end 

    Тональность:

    Нет текста!



    Назад
    Рекомендуем посмотреть другие песни исполнителя «Chicosci»:

    • Комментарии Facebook ()
    • Комментарии ВКонтакте



    Добавить в Избранное Браузера
    Сохранить здесь Очистить


    x

    0


    +
    -

    +
    -

    -

    Авторизация





    Зарегистрироваться

    M

    Дата и время

    • 18:45:09
       

    Социальные ссылки


    Наши приложения

    • Muzbank App Play Market
    • Muzbank Amazon App