MUZBANK



A Most Complete Bank Of Music Information

МУЗЫКАЛЬНО-ИНФОРМАЦИОННЫЙ БАНК

Поиск по сайту







    CChicosci • Quail (аккорды и текст - chords & lyrics)


    209

    Print

    Видео «Quail (Chicosci)»

    Видео клипы к песне подбираются автоматически сайтом youtube. Возможны некоторые несоответствия клипов песне.

    ↑ Спрятать рекламу ↑



    Download


     
    
    
    SONG: Quail
    BAND: Chico Sci.
    ALBUM: Method of Breathing
    TRANSCRIBED BY: Slapchuck(Ron Moncada) 
    email: (rhiane_ross@yahoo.com)
    
    this is 100% right!! believe me...
    
    LEGEND:
    
    / or    - slide up or down
    p        - pull off
    h	 - hammer on
    p.m. --- - palm mute
    b        - bend
    p.h. --- - pinch harmonics
    
    Tuning: Tune guitar whole step down (DGCFAD) then drop d. 
    
    Intro: 
    D --------------     -------------------------
    A --------------     -------------------------
    F --------------     -------------------------(8x)
    C --1-0-1-0-1-0-(8x) -------------------------
    G --1-0-1-0-1-0-     -------------------------
    C --1-0-1-0-1-0-     --9p0--9p0--9p0-9p0-9p0--
    p.m.  -   -
    
    D --0------
    A ----4----
    F ------0--
    C ---------
    G ---------
    C ---------
    
    Verse
    D ----------
    A ----------
    F ----------
    C --00-1-00-(5x)
    G --00-1-00-
    C --00-1-00-
    p.m.--
    
    D -------------------------
    A -------------------------
    F -------------------------
    C -------------------------(8x)
    G -------------------------
    C -9p0--9p0--9p0-9p0-9p0---
    
    D --0------
    A ----4----
    F ------0--
    C ---------
    G ---------
    C ---------
    
    repeat verse
    
    Chorus:
    D --------------    
    A --------------     
    F --------------     
    C --1-0-1-0-1-0-(16x) 
    G --1-0-1-0-1-0-     
    C --1-0-1-0-1-0-    
    p.m.  -   -
    
    repeat verse riff & chorus
    
    D -------------------------
    A -------------------------
    F -------------------------
    C -------------------------(15x)
    G -------------------------
    C -9p0--9p0--9p0-9p0-9p0---
    
    D ------------------
    A ------------------
    F ------------------
    C --111111111111111-(4x)
    G --111111111111111-
    C --111111111111111-
    p.m.---------------
    
    Outro:
    D -----------------------------------------
    A -----------------------------------------
    F -----------------------------------------
    C --0h1-0-1--1-1-0-1-4--0h1-0-1--1-1-0-1-4-(2x)
    G --0h1-0-1--1-1-0-1-4--0h1-0-1--1-1-0-1-4-
    C --0h1-0-1--1-1-0-1-4--0h1-0-1--1-1-0-1-4-
    
    D -----------------------------------------
    A -----------------------------------------
    F -----------------------------------------
    C --2h1-2-1--2-2-1-2-4--2h1-2-1--2-2-1-2-4-(2x)
    G --2h1-2-1--2-2-1-2-4--2h1-2-1--2-2-1-2-4-
    C --2h1-2-1--2-2-1-2-4--2h1-2-1--2-2-1-2-4-
    
    repeat outro till fade
    
    fadein
    D ---------------
    A ---------------
    F --10-1010/999--
    C ---------------
    G --8--8--8/777--
    C ---------------
    repeat till fade out
    _end_
    any comments or trade tablature of any pinoy tabs jst e-mail me at rhiane_ross@yahoo.com
     

    Тональность:

    Нет текста!



    Назад
    Рекомендуем посмотреть другие песни исполнителя «Chicosci»:

    • Комментарии Facebook ()
    • Комментарии ВКонтакте



    Добавить в Избранное Браузера
    Сохранить здесь Очистить


    x

    0


    +
    -

    +
    -

    -

    Авторизация





    Зарегистрироваться

    M

    Дата и время

    • 23:26:19
       

    Социальные ссылки


    Наши приложения

    • Muzbank App Play Market
    • Muzbank Amazon App