MUZBANK



A Most Complete Bank Of Music Information

МУЗЫКАЛЬНО-ИНФОРМАЦИОННЫЙ БАНК

Поиск по сайту







    CChildren Of Bodom • Hate Me (аккорды и текст - chords & lyrics)


    389

    Print

    Видео «Hate Me (Children Of Bodom)»

    Видео клипы к песне подбираются автоматически сайтом youtube. Возможны некоторые несоответствия клипов песне.

    ↑ Спрятать рекламу ↑



    Download


     Tuning: D G C F A D
    
                                               Play this 2 times
    |--------------------||-----------------||-------------|
    |--------------------||-----------------||-------------|
    |--------------------||-----------------||-2-----------|
    |-2---2--------2---2-||-2-2-2-2-2-2-----||-2--2---2--2-|
    |-2---2--------2---2-||-2-2-2-2-2-2-----||-0--2---2--2-|
    |-0---0--------0---0-||-0-0-0-0-0-0-----||----0---0--0-|
    
    Riff 1 (play 6 times)
    |----15-------------------------------------------|
    |-17----19-17-15-------17----17-15-17-15----15-17-|
    |----------------16----------------------16-------|
    |-------------------17----------------------------|
    |-------------------------------------------------|
    |-------------------------------------------------|
    
    
    Verse (play 2 times)
    |------------------------------------|
    |------------------------------------|
    |-------------------------------9--7-|
    |-2-----------------------------9--7-|
    |-2-----------------------------7--5-|
    |-0---0-0-0-0-0-0-0-0-0-0-0-0-0------|
    
    |--------------------------------------------------------------------------|
    |--------------------------------------------------------------------------|
    |---------------------------------------9--9--9-9--7--7--7-7--5--5--5-5--4-|
    |-2-------------------------------------9--9--9-9--7--7--7-7--5--5--5-5--4-|
    |-2-------------------------------------7--7--7-7--5--5--5-5--3--3--3-3--2-|
    |-0---0-0-0-0-0-0-0-0-0-0-0-0-0-0-0-0-0------------------------------------|
    
    Chorus
    |-----------------------------------------------|
    |-----------------------------------------------|
    |-----------------------------------------------|
    |-7--9--------10--2--------------2--------------|
    |-7--9--------10--2--------------2--------------|
    |-5--7--------8---0--0-0-0-0-0-0-0--0-0-0-0-0-0-|
    
    |---------------------------------|
    |---------------------------------|
    |---------------------------------|
    |-7--9------------------2-2-2-2-2-|
    |-7--9------------------2-2-2-2-2-|
    |-5--7--------0-0-0-0-0-0-0-0-0-0-|
    
    Repeat Verse and Chorus
    
    Riff 3
    |-----------------------------------------------|
    |-----------------------------------------------|
    |-7----10-------7-7-7-7---------7-7-7-7---------|
    |-7----10--10---7-7-7-7-7-7-7-7-7-7-7-7-7-7-7-7-|
    |-5----8---10---5-5-5-5-7-7-7-7-5-5-5-5-7-7-7-7-|
    |----------8------------5-5-5-5---------5-5-5-5-|
    
    |----------------------------------------------------|
    |----------------------------------------------------|
    |-7----10-------7-7-7-7---------7-7-7-7---------9----|
    |-7----10--10---7-7-7-7-7-7-7-7-7-7-7-7-7-7-7-7-9----|
    |-5----8---10---5-5-5-5-7-7-7-7-5-5-5-5-7-7-7-7-7----|
    |----------8------------5-5-5-5---------5-5-5-5------| 

    Тональность:

    Нет текста!



    Назад
    Рекомендуем посмотреть другие песни исполнителя «Children Of Bodom»:

    • Комментарии Facebook ()
    • Комментарии ВКонтакте



    Добавить в Избранное Браузера
    Сохранить здесь Очистить


    x

    0


    +
    -

    +
    -

    -

    Авторизация





    Зарегистрироваться

    M

    Дата и время

    • 01:28:50
       

    Социальные ссылки


    Наши приложения

    • Muzbank App Play Market
    • Muzbank Amazon App