MUZBANK



A Most Complete Bank Of Music Information

МУЗЫКАЛЬНО-ИНФОРМАЦИОННЫЙ БАНК

Поиск по сайту







    CChildren Of Bodom • Wrath Within (аккорды и текст - chords & lyrics)


    222

    Print

    Видео «Wrath Within (Children Of Bodom)»

    Видео клипы к песне подбираются автоматически сайтом youtube. Возможны некоторые несоответствия клипов песне.

    ↑ Спрятать рекламу ↑



    Download



     
    
    
    Wrath Within
    
    
                                                                   Children of Bodom
    Guitar fills and solos
    Tab by Siroa : death_50@hotmail.com
    
    
    D||------|------|-------------------|-------------------|
    A||------|------|-------------------|-------------------|
    F||------|------|-------------------|-------------------|
    C||------|------|----------9/-------|-------------------|
    G||------|------|-------------------|--9/---------------|
    D||------|------|-------------------|-------------------|
    
    ---------------------------|-------------------|----------------------------|
    ---------------------------|-------------------|---------------------10-----|
    ------------------------8--|------8------------|-------------------------6--|
    -----7--8--10--8--7--6-----|-------------------|-----7--8--10--8--7---------|
    --0------------------------|-------------------|--0-------------------------|
    ---------------------------|-------------------|----------------------------|
    
    -------------------|---------------------------|------------------|
    -------------------|---------------------------|------------------|
    ------6------------|------------------------8~-|------------------|
    -------------------|-----7--8--10--8--7--6-----|------------------|
    -------------------|--0------------------------|------------------|
    -------------------|---------------------------|------------------|
    
    ---------------------------|---------------------|---------------------------|
    ---------------------------|---------------------|---------------------------|
    ---------------------------|---------------------|------------------------8--|
    -----7--9--10--9--7--6--6~-|--------------6/-18/-|-----7--9--10--9--7--6-----|
    --0------------------------|---------------------|--0------------------------|
    ---------------------------|---------------------|---------------------------|
    
    -------------------|----------------------------|-------------------|
    -------------------|---------------------10-----|-------------------|
    ------8------------|-------------------------6--|------6------------|
    -------------------|-----7--9--10--9--7---------|-------------------|
    -------------------|--0-------------------------|-------------------|
    -------------------|----------------------------|-------------------|
    
    ---------------------------|------------------|---------------------------|
    ---------------------------|------------------|---------------------------|
    ---------------------------|------------------|---------------------------|
    -----7--9--10--9--7--6--5~-|------------------|-----7--9--10--9--7--6--6~-|
    --0------------------------|------------------|--0------------------------|
    ---------------------------|------------------|---------------------------|
    
    ------------------|---------------------------|------------------------|
    ------------------|---------------------------|------------------------|
    ------------------|------------------------8--|------8--8--8--8--8--8--|
    ------------------|-----7--8--10--8--7--6-----|------------------------|
    ------------------|--0------------------------|------------------------|
    ------------------|---------------------------|------------------------|
    
    ----------------------------|-------------------|---------------------------|
    ---------------------10-----|-------------------|---------------------------|
    -------------------------6--|------6------------|------------------------8~-|
    -----7--8--10--8--7---------|-------------------|-----7--8--10--8--7--6-----|
    --0-------------------------|-------------------|--0------------------------|
    ----------------------------|-------------------|---------------------------|
    
    ------------------|---------------------------|------|------|------|------|
    ------------------|---------------------------|------|------|------|------|
    ------------------|---------------------------|------|------|------|------|
    ------------------|-----7--9--10--9--7--6--6--|------|------|------|------|
    ------------------|--0------------------------|------|------|------|------|
    ------------------|---------------------------|------|------|------|------|
    
    ------|------|------|------|------|------|------|------|------|------|------|
    ------|------|------|------|------|------|------|------|------|------|------|
    ------|------|------|------|------|------|------|------|------|------|------|
    ------|------|------|------|------|------|------|------|------|------|------|
    ------|------|------|------|------|------|------|------|------|------|------|
    ------|------|------|------|------|------|------|------|------|------|------|
    
    ------|------|------|------|------|------|------|------|------|------|------|
    ------|------|------|------|------|------|------|------|------|------|------|
    ------|------|------|------|------|------|------|------|------|------|------|
    ------|------|------|------|------|------|------|------|------|------|------|
    ------|------|------|------|------|------|------|------|------|------|------|
    ------|------|------|------|------|------|------|------|------|------|------|
    
    ------|------|------|---------------------|--------------------------------|
    ------|------|------|---------------------|------------------------5-5-5-5-|
    ------|------|------|---------------------|-----------------4--4-4---------|
    ------|------|------|--5----4----5--------|--5-5-5-5-5--5-5----------------|
    ------|------|------|---------------------|--------------------------------|
    ------|------|------|---------------------|--------------------------------|
    
    --------------------------------|------------------------------------|
    -----------------5--5-5-8-8-8-8-|----------5--5-5-8--8-8-12-12-12-12-|
    -------------4-4----------------|--4-4-4-4---------------------------|
    --5-5-5-5-5---------------------|------------------------------------|
    --------------------------------|------------------------------------|
    --------------------------------|------------------------------------|
    
    ----------------------13--10--12~---|----------------------------------|
    --8-8-8-8-12-12-12-12---------------|--------------------------5-5-5-5-|
    ------------------------------------|------------------4-4-4-4---------|
    ------------------------------------|--2-2-2-2-5-5-5-5-----------------|
    ------------------------------------|----------------------------------|
    ------------------------------------|----------------------------------|
    
    ----------------------------------|------|------|------|------|------|------|
    ------------------5-5-5-5-8-8-8-8-|------|------|------|------|------|------|
    ----------4-4-4-4-----------------|------|------|------|------|------|------|
    --5-5-5-5-------------------------|------|------|------|------|------|------|
    ----------------------------------|------|------|------|------|------|------|
    ----------------------------------|------|------|------|------|------|------|
    
    ------|------|------|------|------|------|------|------|------|------|------|
    ------|------|------|------|------|------|------|------|------|------|------|
    ------|------|------|------|------|------|------|------|------|------|------|
    ------|------|------|------|------|------|------|------|------|------|------|
    ------|------|------|------|------|------|------|------|------|------|------|
    ------|------|------|------|------|------|------|------|------|------|------|
    
    ------|------|---------------------|----17----------------------|
    ------|------|--0/-------------16--|--------13------------------|
    ------|------|---------------------|------------14--------------|
    ------|------|---------------------|----------------13------13--|
    ------|------|---------------------|----------------------------|
    ------|------|---------------------|----------------------------|
    
    ------------------------------|--8-12-8---------8-12-10-14-10----------10-14-|
    --------------13r-13----------|---------10---10---------------12----12-------|
    --14--------------------14----|------------9---------------------11----------|
    ------13----------------------|----------------------------------------------|
    ----------12------------------|----------------------------------------------|
    ------------------------------|----------------------------------------------|
    
    --12-17-12----------12-17-24----5/-17--|----17------17------17------17--|
    -----------15----15--------------------|--------20b-----20b-----20b-----|
    --------------14-----------------------|--------------------------------|
    ---------------------------------------|--------------------------------|
    ---------------------------------------|--------------------------------|
    ---------------------------------------|--------------------------------|
    
    --20b---20--20r-----5/-12--|--13-12-10----------------10-12-13-15-13-12-10----|
    ---------------------------|-----------13-12-10-12-13----------------------13-|
    ---------------------------|--------------------------------------------------|
    ---------------------------|--------------------------------------------------|
    ---------------------------|--------------------------------------------------|
    ---------------------------|--------------------------------------------------|
    
    --------------10-12-13-12/---------|------------------------------|
    --12-10-12-13----------------------|--------------12/-13--13--15--|
    -----------------------------------|--------7/-9------------------|
    -----------------------------------|-----7------------------------|
    --------------------------------5/-|--7---------------------------|
    -----------------------------------|------------------------------|
    
    ----------------------------|--------------------------------------------------|
    --15--15--13--12--13r-------|--------------------------------------------------|
    ----------------------------|-----------------------------------------------14-|
    ----------------------------|--------------------------14----------14-15-17----|
    ----------------------------|-----------------13-15-17----17-15-17-------------|
    ----------------------------|--17-15-13-15-17----------------------------------|
    
    -----------------------------------15-17-19-20-22-|--24--------24~-------|
    -----------------------15-18-17-18----------------|----------------------|
    --16-14----14-17-16-17----------------------------|----------------------|
    --------17----------------------------------------|----------------------|
    --------------------------------------------------|----------------------|
    --------------------------------------------------|----------------------|
    
    --22b-20----------------------|--15----14--12--15----14----12----|
    ---------22-------------------|--18----17--15--18----17----15----|
    -------------20--17b----------|----------------------------------|
    ------------------------------|----------------------------------|
    ------------------------------|----------------------------------|
    ---------------------15/------|----------------------------------|
    
    --14------x--20-23-20----------|------|------|------|------|-------------------|
    --17------x-----------21-------|------|------|------|------|-------------------|
    ----------x--------------20----|------|------|------|------|--5/---------------|
    ----------x--------------------|------|------|------|------|--5/---------------|
    -------------------------------|------|------|------|------|-------------------|
    -------------------------------|------|------|------|------|-------------------|
    
    ------|------|------|------|------|------|------|------|
    ------|------|------|------|------|------|------|------|
    ------|------|------|------|------|------|------|------|
    ------|------|------|------|------|------|------|------|
    ------|------|------|------|------|------|------|------|
    ------|------|------|------|------|------|------|------|
    
    --12----------12----------12------|--19----------19--20------------|
    ------13----------13----------13--|------20--------------22--------|
    ----------14----------14----------|----------19--------------21----|
    ----------------------------------|--------------------------------|
    ----------------------------------|--------------------------------|
    ----------------------------------|--------------------------------|
    
    --20----------------------20------|--19--15------19--17--------|
    ------22--------------22------22--|----------15----------------|
    ----------21------21--------------|----------------------------|
    --------------22------------------|----------------------------|
    ----------------------------------|----------------------------|
    ----------------------------------|----------------------------|
    
    --12----------12----------12------|--19----------19--20------------|
    ------13----------13----------13--|------20--------------22--------|
    ----------14----------14----------|----------19--------------21----|
    ----------------------------------|--------------------------------|
    ----------------------------------|--------------------------------|
    ----------------------------------|--------------------------------|
    
    --20----------------------20------|--19--15------19--17-19-17-15-17----|
    ------22--------------22------22--|----------15------------------------|
    ----------21------21--------------|------------------------------------|
    --------------22------------------|------------------------------------|
    ----------------------------------|------------------------------------|
    ----------------------------------|------------------------------------|
    
    --------------------------13--10--12--13--12--10--|
    --13--10--12--13--12--10--------------------------|
    --------------------------------------------------|
    --------------------------------------------------|
    --------------------------------------------------|
    --------------------------------------------------|
    
    ------------------------12--8--10--12--10--8--|
    --12--8--10--12--10--8------------------------|
    ----------------------------------------------|
    ----------------------------------------------|
    ----------------------------------------------|
    ----------------------------------------------|
    
    ----------------------10--7--8--10--8--7/-|--16--------------------------------|
    --10--6--8--10--8--6----------------------|------17--15--17--13--15--13--------|
    ------------------------------------------|------------------------------------|
    ------------------------------------------|------------------------------------|
    ------------------------------------------|------------------------------------|
    ------------------------------------------|------------------------------------|
    
    --12----------12----------12------|--19----------19--20------------|
    ------13----------13----------13--|------20--------------22--------|
    ----------14----------14----------|----------19--------------21----|
    ----------------------------------|--------------------------------|
    ----------------------------------|--------------------------------|
    ----------------------------------|--------------------------------|
    
    --20----------------------20----------------------|
    ------22--------------22------22--------------20--|
    ----------21------21--------------21------21------|
    --------------22----------------------22----------|
    --------------------------------------------------|
    --------------------------------------------------|
    
    --19------------------19--17--------|--12----------12----------12------|
    ------20----------------------------|------13----------13----------13--|
    ----------21------21----------------|----------14----------14----------|
    --------------21--------------------|----------------------------------|
    ------------------------------------|----------------------------------|
    ------------------------------------|----------------------------------|
    
    --19----------19--20------------|
    ------20--------------22--------|
    ----------19--------------21----|
    --------------------------------|
    --------------------------------|
    --------------------------------|
    
    -----------10-12-13-12-10-12-10----------------10-|
    --10-12-13----------------------13-12-10-12-13----|
    --------------------------------------------------|
    --------------------------------------------------|
    --------------------------------------------------|
    --------------------------------------------------|
    
    --12-13-15-13-12-10-----------------|--------------------------|
    --------------------13-12-10--------|--------------------------|
    ------------------------------------|--------------------------|
    ------------------------------------|--9--------9--------9-----|
    ------------------------------------|--9--------9--------9-----|
    ------------------------------------|--7--7--7--7--7--7--7--7--|
    
    ------------------------|--------------------------|----------------------|
    ------------------------|--------------------------|----------------------|
    ------------------------|--------------------------|----------------------|
    --7-----7----9----------|--9--------9--------9-----|--7----12----9--------|
    --7-----7----9----------|--9--------9--------9-----|--7----12----9--------|
    --5--5--5----7----7--7--|--7--7--7--7--7--7--7--7--|--5----10----7--------|
    
    --------------------------|------------------------|
    --------------------------|------------------------|
    --------------------------|------------------------|
    --9--------9--------9-----|--7----12----9----11----|
    --9--------9--------9-----|--7----12----9----11----|
    --7--7--7--7--7--7--7--7--|--5----10----7----9-----|
    
    ----------------------------------|---------------------|
    ----------------------------------|---------------------|
    ----------------------------------|-------9-------------|
    --12----------12----------12------|--7----9----9--------|
    --12----------12----------12------|--7----7----9--------|
    --10--10--10--10--10--10--10--10--|--5---------7--------|
    
    --------------------------|------------------------|--------------------------|
    --------------------------|------------------------|--------------------------|
    --9--------9--------9-----|--7-----7----9----------|--9--------9--------9-----|
    --9--------9--------9-----|--7-----7----9----------|--9--------9--------9-----|
    --7--7--7--7--7--7--7--7--|--5--5--5----7----7--7--|--7--7--7--7--7--7--7--7--|
    --------------------------|------------------------|--------------------------|
    
    ----------------------|--------------------------|------------------------|
    ----------------------|--------------------------|------------------------|
    --7----12----9--------|--9--------9--------9-----|--7-----7----9----------|
    --7----12----9--------|--9--------9--------9-----|--7-----7----9----------|
    --5----10----7--------|--7--7--7--7--7--7--7--7--|--5--5--5----7----7--7--|
    ----------------------|--------------------------|------------------------|
    
    ------|------|------|------|------|------|------|------|------|------|------|
    ------|------|------|------|------|------|------|------|------|------|------|
    ------|------|------|------|------|------|------|------|------|------|------|
    ------|------|------|------|------|------|------|------|------|------|------|
    ------|------|------|------|------|------|------|------|------|------|------|
    ------|------|------|------|------|------|------|------|------|------|------|
    
    ------|------|------|------|------|------|------|------|------|------|------||
    ------|------|------|------|------|------|------|------|------|------|------||
    ------|------|------|------|------|------|------|------|------|------|------||
    ------|------|------|------|------|------|------|------|------|------|------||
    ------|------|------|------|------|------|------|------|------|------|------||
    ------|------|------|------|------|------|------|------|------|------|------||
     

    Тональность:

    Нет текста!



    Назад
    Рекомендуем посмотреть другие песни исполнителя «Children Of Bodom»:

    • Комментарии Facebook ()
    • Комментарии ВКонтакте



    Добавить в Избранное Браузера
    Сохранить здесь Очистить


    x

    0


    +
    -

    +
    -

    -

    Авторизация





    Зарегистрироваться

    M

    Дата и время

    • 12:05:45
       

    Социальные ссылки


    Наши приложения

    • Muzbank App Play Market
    • Muzbank Amazon App