MUZBANK



A Most Complete Bank Of Music Information

МУЗЫКАЛЬНО-ИНФОРМАЦИОННЫЙ БАНК

Поиск по сайту







    CChildren Of Bodom • Wrath Within (аккорды и текст - chords & lyrics)


    136

    Print

    Видео «Wrath Within (Children Of Bodom)»

    Видео клипы к песне подбираются автоматически сайтом youtube. Возможны некоторые несоответствия клипов песне.

    ↑ Спрятать рекламу ↑



    Download



     
    
    
    WRATH WITHIN
    from: CHILDREN OF BODOM
          HATEBREEDER
    
    Guitar 1
    Tab by Siroa : death_50@hotmail.com
                                                                        
    D||--------------------------------|--------------------------------|
    A||--------------------------------|--------------------------------|
    F||--------------------------------|--------------------------------|
    C||--------------------------------|--------------------------------|
    G||--------------------------------|--------------------------------|
    D||--5--5-5-5-5-5-5-5--5-5-5-5-5-5-|--5--5-5-5-5-5-5-5--5-5-5-5-5-5-|
    
    
                                                                      
    --------------------------------|--------------------------------|
    --------------------------------|--------------------------------|
    --------------------------------|--------------------------------|
    --------------------------------|--------------------------------|
    --------------------------------|--------------------------------|
    --5--5-5-5-5-5-5-5--5-5-5-5-5-5-|--5--5-5-5-5-5-5-5--5-5-5-5-5-5-|
    
    
                                                                      
    --------------------------------|--------------------------------|
    --------------------------------|--------------------------------|
    --------------------------------|--------------------------------|
    --------------------------------|--------------------------------|
    --------------------------------|--------------------------------|
    --5--5-5-5-5-5-5-5--5-5-5-5-5-5-|--5--5-5-5-5-5-5-5--5-5-5-5-5-5-|
    
    
                                                                      
    --------------------------------|--------------------------------|
    --------------------------------|--------------------------------|
    --------------------------------|--------------------------------|
    --------------------------------|--------------------------------|
    --------------------------------|--4--4-4-4-4-4-4-4--4-4-4-4-4-4-|
    --5--5-5-5-5-5-5-5--5-5-5-5-5-5-|--------------------------------|
    
    
                                                                      
    --------------------------------|--------------------------------|
    --------------------------------|--------------------------------|
    --------------------------------|--------------------------------|
    --------------------------------|--------------------------------|
    --------------------------------|--------------------------------|
    --5--5-5-5-5-5-5-5--5-5-5-5-5-5-|--2--2-2-2-2-2-2-2--2-2-2-2-2-2-|
    
    
                                                                                  
    --------------------------|------------------|-------------------------------|
    --------------------------|------------------|-------------------------------|
    -----5--7--9--7--5--4-----|------------------|----------------------------5--|
    -----------------------6~-|------------------|-------------------------------|
    --0-----------------------|------------------|-------------------------------|
    --------------------------|------------------|--5--5-5-5-5-5-5-5--5-5-5-5----|
    
    
                                                                          
    ------------------|-------------------------------|------------------|
    ------------------|-------------------------------|------------------|
    ------------------|----------------------------9--|------------------|
    ------------------|-------------------------------|------------------|
    ------------------|-------------------------------|------------------|
    ------------------|--5--5-5-5-5-5-5-5--5-5-5-5----|------------------|
    
    
                                                                                  
    -------------------------------|------------------|--------------------------|
    -------------------------------|------------------|--------------------------|
    ----------------------------8--|------------------|-----5--7--9--7--5--4-----|
    -------------------------------|------------------|-----------------------6~-|
    -------------------------------|------------------|--0-----------------------|
    --5--5-5-5-5-5-5-5--5-5-5-5----|------------------|--------------------------|
    
    
                                                                              
    ------------------|-------------------------|----------------------------|
    ------------------|-------------------------|----------------------------|
    ------------------|-------------------------|----------------------------|
    ------------------|--7----7--------------7--|----------------------------|
    ------------------|--7----7--------------7--|----------------------------|
    ------------------|--5----5--5--5--5--5--5--|------5--5-5-5--5-5-5-5-5-5-|
    
    
                                                             
    -------------------------|------------------------------|
    -------------------------|------------------------------|
    ----------------------6--|------------------------------|
    --7----7--------------6--|------------------------------|
    --7----7--------------4--|------4-4-4-4-4-4-4-4-4-4-4-4-|
    --5----5--5--5--5--5-----|------------------------------|
    
    
                                                           
    -------------------------|----------------------------|
    -------------------------|----------------------------|
    -------------------------|----------------------------|
    --7----7--------------4--|----------------------------|
    --7----7--------------4--|----------------------------|
    --5----5--5--5--5--5--2--|------2--2-2-2--2-2-2-2-2-2-|
    
    
                                                                               
    --------------------------|--------------10--15--10----------|------------|
    --------------------------|----------11--------------11------|------------|
    -----5--7--9--7--5--4--5--|------12----------------------12--|------------|
    --------------------------|--12------------------------------|--7--7------|
    --0-----------------------|----------------------------------|--7--7------|
    --------------------------|----------------------------------|--5--5------|
    
    
                                                                          
    ----------------------------------|----------------------------------|
    ----------------------------------|----------------------------------|
    ----------------------------------|----------------------------------|
    ----------------------------------|----------------------------------|
    --7-7-7-7-7-7-7-7-7-7-7-7-7-7-7-7-|--7-7-7-7-7-7-7-7-7-7-7-7-7-7-7-7-|
    ----------------------------------|----------------------------------|
    
    
                                                                      
    ----------------------------------|------------------------------|
    ----------------------------------|------------------------------|
    ----------------------------------|------------------10--7--9----|
    ----------------------------------|------------------10--7--9----|
    --7-7-7-7-7-7-7-7-7-7-7-7-7-7-7-7-|--7-7-7-7-7-7-7-7-8---5--7----|
    ----------------------------------|------------------------------|
    
    
                                                                         
    ---------------------------------|----------------------------------|
    ---------------------------------|----------------------------------|
    --9------------------------------|----------------------------------|
    --9------------------------------|----------------------------------|
    --7--7-7-7-7-7-7-7-7-7-7-7-7-7-7-|--7-7-7-7-7-7-7-7-7-7-7-7-7-7-7-7-|
    ---------------------------------|----------------------------------|
    
    
                                                               
    ----------------------------------|-----------------------|
    ----------------------------------|-----------------------|
    ----------------------------------|-----------8--9--------|
    ----------------------------------|--10----9--------------|
    --7-7-7-7-7-7-7-7-7-7-7-7-7-7-7-7-|-----------------------|
    ----------------------------------|-----------------------|
    
    
                                                                          
    ----------------------------------|----------------------------------|
    ----------------------------------|----------------------------------|
    ----------------------------------|----------------------------------|
    ----------------------------------|----------------------------------|
    --7-7-7-7-7-7-7-7-7-7-7-7-7-7-7-7-|--7-7-7-7-7-7-7-7-7-7-7-7-7-7-7-7-|
    ----------------------------------|----------------------------------|
    
    
                                                                            
    ----------------------------------|------------------------------------|
    ----------------------------------|------------------------------------|
    ----------------------------------|--------------------------------7-7-|
    --7-7-7-7-7-7-7-7-7-7-7-7-7-7-7-7-|--7-7-7-7-7-7-7-7-7-7-9-9-10-10-----|
    ----------------------------------|------------------------------------|
    ----------------------------------|------------------------------------|
    
    
                                                                          
    ----------------------------------|----------------------------------|
    ----------------------------------|--------------8-8-7-7-7-7---------|
    --9-9-9-9-9-9-9-9-9-9-9-9-9-9-9-9-|--7-7-7-7-7-7-------------7-7-7-7-|
    ----------------------------------|----------------------------------|
    ----------------------------------|----------------------------------|
    ----------------------------------|----------------------------------|
    
    
                                                                   
    -----------------------------|--------------------------------|
    --------------7--8------8----|--------------------------------|
    --9-9-9-9-9-9-7--9--9-9-9----|----------------------9----7----|
    -----------------------------|------------7---------9----7----|
    -----------------------------|--7--9--10-----10--9--7----5----|
    -----------------------------|--------------------------------|
    
    
                                                              
    --------------------|------------------------------------|
    --------------------|------------------------------------|
    --7--------6--------|------------------------------------|
    --------------------|------------------------------------|
    --5--------4--------|--2---------------------------------|
    --------------------|--0----0--0--0--0--0----0--0--0--0--|
    
    
                                                                               
    ----------------------------------|---------------------------------------|
    ----------------------------------|---------------------------------------|
    ----------------------------------|---------------------------------------|
    ----------------------------------|-----------------------------7h-9h-11--|
    --10----9----7----------7----9----|---------------------------------------|
    ------------------10--------------|--0--0--0--0--0--0--5h-7h-9------------|
    
    
                                                                               
    --------------------|--------------------------------|--------------------|
    --------------------|--------------------------------|--------------------|
    --------------------|--------------------------------|--------------------|
    --5--------4--------|--------------------------------|--7--------9--------|
    --5--------4--------|--------------------------------|--7--------9--------|
    --3--------2--------|--0--0-0-0-0-0-0-0--0-0-0-0-0-0-|--5--------7--------|
    
    
                                                                    
    -----------------------|-------------------|-------------------|
    -----------------------|-------------------|-------------------|
    -----------------------|-------------------|-------------------|
    --10----12----9--------|--2----------------|-------------2-----|
    --10----12----9--------|--2----------------|-------------2-----|
    --8-----10----7--------|--0----------------|-------------0-----|
    
    
                                                                               
    -------------------|---------------------|--------------------------------|
    -------------------|---------------------|--------------------------------|
    -------------------|--5----7----9--------|--------------------------------|
    ---2---------------|--5----7----9--------|--------------------------------|
    ---2---------------|--3----5----7--------|--------------------------------|
    ---0---------------|---------------------|--0-0-0-0-0--0-0-0--0-0-0-0-0-0-|
    
    
                                                                      
    --------------------------------|--------------------------------|
    --------------------------------|--------------------------------|
    --------------------------------|--------------------------------|
    --------------------------------|--------------------------------|
    --------------------------------|--------------------------------|
    --0-0-0-0-0--0-0-0--0-0-0-0-0-0-|--0-0-0-0-0--0-0-0--0-0-0-0-0-0-|
    
    
                                                                      
    ------------------------------|----------------------------------|
    ------------------------------|----------------------------------|
    ------------------10--7--9----|----------------------------------|
    ------------------10--7--9----|----------------------------------|
    ------------------8---5--7----|--7-7-7-7-7-7-7-7-7-7-7-7-7-7-7-7-|
    --0-0-0-0-0-0-0-0-------------|----------------------------------|
    
    
                                                                   
    ----------------------------------|---------------------------|
    ----------------------------------|---------------------------|
    ----------------------------------|---------------------------|
    ----------------------------------|-------------7------7------|
    --7-7-7-7-7-7-7-7-7-7-7-7-7-7-7-7-|--7------10-----10-----10--|
    ----------------------------------|---------------------------|
    
    
                                                             
    -----------------------------|--------------------------|
    -----------------------------|--------------------------|
    --7h9p7----------------------|--------------------------|
    ---------10--9--7------------|--9--------9--------9-----|
    -------------------10--9--6--|--7--7--7--7--7--7--7--7--|
    -----------------------------|--------------------------|
    
    
                                                          
    --------------------------|--------------------------|
    --------------------------|--------------------------|
    --------------------------|--------------------------|
    --9--------------------7--|--9--------9--------9-----|
    --6--6--6--------6--9-----|--7--7--7--7--7--7--7--7--|
    -----------5--8-----------|--------------------------|
    
    
                                                          
    --------------------------|--------------------------|
    --------------------------|--------------------------|
    --------------------------|--------------------------|
    --9--------------------7--|--9--------9--------9-----|
    --6--6--6--------6--9-----|--7--7--7--7--7--7--7--7--|
    -----------5--8-----------|--------------------------|
    
    
                                                          
    --------------------------|--------------------------|
    --------------------------|--------------------------|
    --------------------------|--------------------------|
    --9--------9--------9-----|--9--------9--------9-----|
    --6--6--6--6--6--6--6--6--|--7--7--7--7--7--7--7--7--|
    --------------------------|--------------------------|
    
    
                                                                
    --------------------------------|--------------------------|
    --------------------------------|--------------------------|
    --------------8h9h11p9h8h-------|--------------------------|
    --9----------------------10p9p7-|--9--------9--------9-----|
    --9--9--9--9--------------------|--7--7--7--7--7--7--7--7--|
    --------------------------------|--------------------------|
    
    
                                                          
    --------------------------|--------------------------|
    --------------------------|--------------------------|
    --------------------------|--------------------------|
    --9--------------------7--|--9--------9--------9-----|
    --6--6--6--------6--9-----|--7--7--7--7--7--7--7--7--|
    -----------5--8-----------|--------------------------|
    
    
                                                          
    --------------------------|--------------------------|
    --------------------------|--------------------------|
    --------------------------|--------------------------|
    --9--------------------7--|--9--------9--------9-----|
    --6--6--6--------6--9-----|--7--7--7--7--7--7--7--7--|
    -----------5--8-----------|--------------------------|
    
    
                                                          
    --------------------------|--------------------------|
    --------------------------|--------------------------|
    --------------------------|--------------------------|
    --9--------9--------9-----|--9--------9--------9-----|
    --6--6--6--6--6--6--6--6--|--7--7--7--7--7--7--7--7--|
    --------------------------|--------------------------|
    
    
                                                               
    --------------------------------|-------------------------|
    --------------------------------|-------------------------|
    --------------8h9h11p9p8h-------|-------------------------|
    --9----------------------10p9p7-|--5----------------------|
    --9--9--9--9--------------------|--5----5--5--5--5--5--5--|
    --------------------------------|--3----3--3--3--3--3--3--|
    
    
                                                                      
    --------------------------|------------------|-------------------|
    --------------------------|------------------|-------------------|
    --------------------------|------------------|--5----------------|
    -----------------------7--|------------------|--5----------------|
    --5--5--5--5--5--5--5--7--|------------------|--3----------------|
    --3--3--3--3--3--3--3--5--|------------------|-------------------|
    
    
                                                                 
    ---------------------|------------------|-------------------|
    ---------------------|------------------|-------------------|
    ------------------5--|------------------|-------------------|
    --7--------5------5--|------------------|--7----------------|
    --7--------5------3--|------------------|--7----------------|
    --5--------3---------|------------------|--5----------------|
    
    
                                                                              
    -------------------|--------------------------|--------------------------|
    -------------------|--------------------------|--------------------------|
    --5----------------|--------------------------|--------------------------|
    --5----------------|--------------------------|--------------------------|
    --3----------------|--2--2--2--2--2--2--2--2--|--2--2--2--2--2--2--2--2--|
    -------------------|--0--0--0--0--0--0--0--0--|--0--0--0--0--0--0--0--0--|
    
    
                                                                  
    -------------------|-------------------|---------------------|
    -------------------|-------------------|---------------------|
    -------------------|--5----------------|------------------5--|
    --7----------------|--5----------------|--7--------5------5--|
    --7----------------|--3----------------|--7--------5------3--|
    --5----------------|-------------------|--5--------3---------|
    
    
                                                               
    ------------------|-------------------|-------------------|
    ------------------|-------------------|-------------------|
    ------------------|-------------------|--5----------------|
    ------------------|--7----------------|--5----------------|
    ------------------|--7----------------|--3----------------|
    ------------------|--5----------------|-------------------|
    
    
                                                          
    --------------------------|--------------------------|
    --------------------------|--------------------------|
    --------------------------|--------------------------|
    --------------------------|--------------------------|
    --2--2--2--2--2--2--2--2--|--2--2--2--2--2--2--2--2--|
    --0--0--0--0--0--0--0--0--|--0--0--0--0--0--0--0--0--|
    
    
                                                                      
    ----------------------------|------------------------------------|
    ----------------------------|------------------------------------|
    ----------------------------|--9----10----10----9----10----10----|
    ----------------------7--9--|--9----10----10----9----10----10----|
    --10--9--8--7--9--10--------|--7----8-----8-----7----8-----8-----|
    ----------------------------|------------------------------------|
    
    
                                                                  
    ----------------------------|--------------------------------|
    ----------------------------|--------------------------------|
    ----------------------------|--9----8----8----9----8----8----|
    ----------------------7--9--|--9----8----8----9----8----8----|
    --10--9--8--7--9--10--------|--7----6----6----7----6----6----|
    ----------------------------|--------------------------------|
    
    
                                                                             
    --------------------|----------------------|----------------------------|
    --------------------|--12--------13--------|----------------------------|
    --------------------|--9---------10--------|----------------------------|
    --2--2--------------|--9---------10--------|----------------------7--9--|
    --2--2--------------|----------------------|--10--9--8--7--9--10--------|
    --0--0--------------|----------------------|----------------------------|
    
    
                                                                         
    ----------------------|----------------------|----------------------|
    ----------------------|----------------------|--12--------13--------|
    -------4----9---------|-----------------7----|--9---------10--------|
    --2----4----9----8----|--7----2----5----7----|--9---------10--------|
    --2----2----7----8----|--7----2----5----5----|----------------------|
    --0--------------6----|--5----0----3---------|----------------------|
    
    
                                                                               
    ----------------------------|----------------------|----------------------|
    ----------------------------|----------------------|----------------------|
    ----------------------------|-------4----9---------|-----------------7----|
    ----------------------7--9--|--2----4----9----8----|--7----2----5----7----|
    --10--9--8--7--9--10--------|--2----2----7----8----|--7----2----5----5----|
    ----------------------------|--0--------------6----|--5----0----3---------|
    
    
                                                                                   
    --------------------------|------------------------|--------------------------|
    --------------------------|------------------------|--------------------------|
    --------------------------|------------------------|--------------------------|
    --7--------7--------7-----|--5-----5----7----------|--7--------7--------7-----|
    --7--------7--------7-----|--5-----5----7----------|--7--------7--------7-----|
    --5--5--5--5--5--5--5--5--|--3--3--3----5----5--5--|--5--5--5--5--5--5--5--5--|
    
    
                                                                              
    ----------------------|--------------------------|-----------------------|
    ----------------------|--------------------------|-----------------------|
    ----------------------|--------------------------|-----------------------|
    --5----10----7--------|--7--------7--------7-----|--5----10----7----9----|
    --5----10----7--------|--7--------7--------7-----|--5----10----7----9----|
    --3----8-----5--------|--5--5--5--5--5--5--5--5--|--3----8-----5----7----|
    
    
                                                                             
    -----------------------------|---------------------|--------------------|
    -----------------------------|---------------------|--------------------|
    -----------------------------|-------7-------------|-----------7--------|
    --10--------10--------10-----|--5----7----7--------|--7--------7--------|
    --10--------10--------10-----|--5----5----7--------|--7--------5--------|
    --8---8--8--8---8--8--8---8--|--3---------5--------|--5-----------------|
    
    
                                                                    
    --------------------|--------------------|---------------------|
    --------------------|--------------------|---------------------|
    -----------5--------|-----------4--------|---------------------|
    --5--------5--------|--3--------4--------|--2----5----7--------|
    --5--------3--------|--3--------2--------|--2----5----7--------|
    --3-----------------|--1-----------------|--0----3----5--------|
    
    
                                                                                   
    --------------------------|------------------------|--------------------------|
    --------------------------|------------------------|--------------------------|
    --------------------------|------------------------|--------------------------|
    --7--------7--------7-----|--5-----5----7----------|--7--------7--------7-----|
    --7--------7--------7-----|--5-----5----7----------|--7--------7--------7-----|
    --5--5--5--5--5--5--5--5--|--3--3--3----5----5--5--|--5--5--5--5--5--5--5--5--|
    
    
                                                                              
    ----------------------|--------------------------|-----------------------|
    ----------------------|--------------------------|-----------------------|
    ----------------------|--------------------------|-----------------------|
    --5----10----7--------|--7--------7--------7-----|--5----10----7----9----|
    --5----10----7--------|--7--------7--------7-----|--5----10----7----9----|
    --3----8-----5--------|--5--5--5--5--5--5--5--5--|--3----8-----5----7----|
    
    
                                                                                
    -----------------------------|---------------------|-----------------------|
    -----------------------------|---------------------|-----------------------|
    -----------------------------|-------7-------------|-----------------------|
    --10--------10--------10-----|--5----7----7--------|--9------11------12----|
    --10--------10--------10-----|--5----5----7--------|-----------------------|
    --8---8--8--8---8--8--8---8--|--3---------5--------|-----------------------|
    
    
                                                                                   
    ----------------------------|-----------------------|-------------------------|
    ----------------------------|-----------------------|-------------------------|
    ----------------------------|-----------------------|----------------9~-------|
    --11------11--12--11--9--7--|--9------11------12----|--11----11--12-----------|
    ----------------------------|-----------------------|-------------------------|
    ----------------------------|-----------------------|-------------------------|
    
    
                                                                                   
    -----------------------|-----------------------------|------------------------|
    -----------------------|-----------------------------|------------------------|
    -----------------------|--------------------------9--|--11--------------11----|
    --9------11------12----|--11------11--12--11--12-----|----------12------------|
    -----------------------|-----------------------------|------------------------|
    -----------------------|-----------------------------|------------------------|
    
    
                                                      
    -------------------------|-----------------------|
    -------10----------------|-----------------------|
    --9--------12--11--------|--9------11------12----|
    -------------------------|-----------------------|
    -------------------------|-----------------------|
    -------------------------|-----------------------|
    
    
                                                             
    --------------------------------|-----------------------|
    -----------------10-------------|-----------------------|
    --11------9--11------12--11--7--|--9------11------12----|
    ------12------------------------|-----------------------|
    --------------------------------|-----------------------|
    --------------------------------|-----------------------|
    
    
                                                        
    ---------------------------|-----------------------|
    ---------------------------|-----------------------|
    --11------9--11--12~-------|--9------11------12----|
    ------12-------------------|-----------------------|
    ---------------------------|-----------------------|
    ---------------------------|-----------------------|
    
    
                                                                        
    --------------------------------|----------------------------------|
    -----------------10-------------|----------------------------------|
    --11------9--11------12--11--7--|----------------------------------|
    ------12------------------------|----------------------------------|
    --------------------------------|--7-7-7-7-5-5-5-5-----------------|
    --------------------------------|------------------7-7-7-7-5-5-5-5-|
    
    
                                                                       
    --------------------------------------|---------------------------|
    --------------------------------------|---------------------------|
    --------------------------------------|---------------------------|
    --------------------------------------|-------------7------7------|
    --10-10-10-10-9-9-9-9-7-7-7-7-5-5-5-5-|--7------10-----10-----10--|
    --------------------------------------|---------------------------|
    
    
                                                             
    -----------------------------|--------------------------|
    -----------------------------|--------------------------|
    --7h9p7----------------------|--------------------------|
    ---------10--9--7------------|--9--------9--------9-----|
    -------------------10--9--6--|--7--7--7--7--7--7--7--7--|
    -----------------------------|--------------------------|
    
    
                                                          
    --------------------------|--------------------------|
    --------------------------|--------------------------|
    --------------------------|--------------------------|
    --9--------------------7--|--9--------9--------9-----|
    --6--6--6--------6--9-----|--7--7--7--7--7--7--7--7--|
    -----------5--8-----------|--------------------------|
    
    
                                                          
    --------------------------|--------------------------|
    --------------------------|--------------------------|
    --------------------------|--------------------------|
    --9--------------------7--|--9--------9--------9-----|
    --6--6--6--------6--9-----|--7--7--7--7--7--7--7--7--|
    -----------5--8-----------|--------------------------|
    
    
                                                          
    --------------------------|--------------------------|
    --------------------------|--------------------------|
    --------------------------|--------------------------|
    --9--------9--------9-----|--9--------9--------9-----|
    --6--6--6--6--6--6--6--6--|--7--7--7--7--7--7--7--7--|
    --------------------------|--------------------------|
    
    
                                                                
    --------------------------------|--------------------------|
    --------------------------------|--------------------------|
    --------------8h9h11p9p8h-------|--------------------------|
    --9----------------------10p9p7-|--9--------9--------9-----|
    --9--9--9--9--------------------|--7--7--7--7--7--7--7--7--|
    --------------------------------|--------------------------|
    
    
                                                          
    --------------------------|--------------------------|
    --------------------------|--------------------------|
    --------------------------|--------------------------|
    --9--------------------7--|--9--------9--------9-----|
    --6--6--6--------6--9-----|--7--7--7--7--7--7--7--7--|
    -----------5--8-----------|--------------------------|
    
    
                                                          
    --------------------------|--------------------------|
    --------------------------|--------------------------|
    --------------------------|--------------------------|
    --9--------------------7--|--9--------9--------9-----|
    --6--6--6--------6--9-----|--7--7--7--7--7--7--7--7--|
    -----------5--8-----------|--------------------------|
    
    
                                                                      
    --------------------------|--------------------------------------|
    --------------------------|--------------------------------------|
    --------------------------|--------------------------------------|
    --9--------9--------9-----|------------------7-7-7-7-10-10-10-10-|
    --6--6--6--6--6--6--6--6--|--6-6-6-6-9-9-9-9---------------------|
    --------------------------|--------------------------------------|
    
    
                                                                                   
    ----------------------------------------------|-------------------------------|
    ----------------------10-10-10-10-13-13-13-13-|-------------------------------|
    --8-8-8-8-11-11-11-11-------------------------|-----------------7----9--------|
    ----------------------------------------------|-----------------7----9--------|
    ----------------------------------------------|--2----2----2----5----7--------|
    ----------------------------------------------|--0----0----0------------------|
    
    
                         
    -------------------||
    -------------------||
    --9---------------||
    --9---------------||
    --7---------------||
    -------------------||
     

    Тональность:

    Нет текста!



    Назад
    Рекомендуем посмотреть другие песни исполнителя «Children Of Bodom»:

    • Комментарии Facebook ()
    • Комментарии ВКонтакте



    Добавить в Избранное Браузера
    Сохранить здесь Очистить


    x

    0


    +
    -

    +
    -

    -

    Авторизация





    Зарегистрироваться

    M

    Дата и время

    • 22:32:07
       

    Социальные ссылки


    Наши приложения

    • Muzbank App Play Market
    • Muzbank Amazon App