MUZBANK



A Most Complete Bank Of Music Information

МУЗЫКАЛЬНО-ИНФОРМАЦИОННЫЙ БАНК

Поиск по сайту







    CChimaira • Army Of Me (аккорды и текст - chords & lyrics)


    152

    Print

    Видео «Army Of Me (Chimaira)»

    Видео клипы к песне подбираются автоматически сайтом youtube. Возможны некоторые несоответствия клипов песне.

    ↑ Спрятать рекламу ↑



    Download



     
    
    
    hey, no one has a tab for this song yet so I did it i cant get the solo yet
    because im a beginer and this is my first tab. Its an awesome song off of
    the F vs. J soundtrack
    
    Tuning drop C CGCFAD....if you dont know how Im me at mecahawk1234.
    
    
    
       Intro clean tone
    
    C--------------------------------------
    G--3h4---4h5-----9h10------------------x2
    C-----5p4----/9h8---12h11--------------
    F--------------------------------------
    A--------------------------------------
    D--------------------------------------
    
    Harmonize with into
    
    C--------------------------------------
    G--------------------------------------
    C--3h4---4h5-----9h10------------------
    F-----5h4----/9h8----12h11h12h11h12h11h12/
    A--------------------------------------/
    D--------------------------------------
    
    Verse w/dist
    pm......   .   ......
    C-000000-1-0-1-000000------------3p2h3p2p0
    G-000000-1-0-1-000000---3p0-2h1p0---------
    C--------------------3p2------------------
    F-----------------------------------------
    A-----------------------------------------
    D-----------------------------------------
    
    Chorus
    
    C-1h0-1h0-1h0-1h0-4p3-4p3-4p3-4p3--------
    G-1h0-1ho-1h0-1h0-4p3-4p3-4p3-4p3--------
    C-1h0-1h0-1h0-1h0-4p3-4p3-4p3-4p3--------
    F----------------------------------------
    A----------------------------------------/
    D----------------------------------------
    
    
    C----------------------------------------
    G-3s2-3s2-3s2-6s5-6s5-6s5----------------
    C-xsx-xsx-xsx-xsx-xsx-xsx----------------
    F-5s4-5s4-5s4-8s7-8s7-8s7----------------
    A----------------------------------------
    D----------------------------------------
     ARMY OF ME! they will avenge me Army of Me
    pm.......................................
    C-1h0-1h0-1h0-1h0-1h0-1h0-1-1-1-1-0-0-0-0
    G-1h0-1h0-1h0-1h0-1ho-1ho-1-1-1-1-0-0-0-0
    C----------------------------------------
    F----------------------------------------
    A----------------------------------------
    D----------------------------------------
    
    
    
    solo (not sure if its right)
    
    C--------------------------------------------------------------
    G--------------------------------------------------------------
    C--------------------------------------------------------------
    F--------------------------------------------------------------
    A-----------------------------------------11-10vib-------------
    D12h11h10-12h11h10-12h11h10-12h10h11h10h11--------12/2113p12-13
    
    
    C--------------------------------------------------------------
    G--------------------------------------------------------------
    C--------------------------------------------------------------
    F--------------------------------------------------------------
    A-15-w/whammy-15h16p13--15h16-----16h17-----17h18--------------/
    D------------trem.pick-------17p16-----18p17-----19bend and vibrate
    
    C---------------------------------------------------------------
    G---------------------------------------------------------------
    C---------------------------------------------------------------
    F---------------------------------------------------------------
    A---------------------------------------------------------------
    D-21p19-19p18-18p17-16p15-14p13-12p10-9p8-7p6-------------------
     pm............. ph ............... ph .................. pinch harmonic
    C-1h0-1h0-1p0-1p0-5-1p0-1p0-1p0-1p0-5-1p0-1p0-1p0-1p0-1p0-5------
    
    Chorus again
    
    
    outro 1                                  gtr 2 comes in
                                           pm.....
    C----------------------------------------00000 
    G---3p2-2p0-0h2-3p2-2p0-0h2-3p2-2p0-0h2--00000
    C---------------------------------------------
    F---------------------------------------------
    A---------------------------------------------
    D--------------------------------------------- 
    pm................................ ph  ...................
    C-00-0-0-000-00-000-000-00-0-00000-(5)-00-0-00-000-00-00-0
    G-00-0-0-000-00-000-000-00-0-00000-----00-0-00-000-00-00-0
    C---------------------------------------------------------
    F---------------------------------------------------------   repeat to end
    A---------------------------------------------------------only play ph 1st 
    D--------------------------------------------------------- time
    
    
    
    thats it listen to cd for timing and only play the harmonic 1 through
     

    Тональность:

    Нет текста!



    Назад
    Рекомендуем посмотреть другие песни исполнителя «Chimaira»:

    • Комментарии Facebook ()
    • Комментарии ВКонтакте



    Добавить в Избранное Браузера
    Сохранить здесь Очистить


    x

    0


    +
    -

    +
    -

    -

    Авторизация





    Зарегистрироваться

    M

    Дата и время

    • 13:55:04
       

    Социальные ссылки


    Наши приложения

    • Muzbank App Play Market
    • Muzbank Amazon App