MUZBANK



A Most Complete Bank Of Music Information

МУЗЫКАЛЬНО-ИНФОРМАЦИОННЫЙ БАНК

Поиск по сайту







    CChimaira • Raining Blood (аккорды и текст - chords & lyrics)


    255

    Print

    Видео «Raining Blood (Chimaira)»

    Видео клипы к песне подбираются автоматически сайтом youtube. Возможны некоторые несоответствия клипов песне.

    ↑ Спрятать рекламу ↑



    Download


     
    
    
    Band: Chimaira - Slayer Cover - Raining Blood
    
    Riff 1
    |--------------------------------------------------------
    |--------------------------------------------------------
    |--------------------------------------------------------
    |---------8-9-8---8-7---7-6-----------8-9-8---8-7---7-6--
    |-------7-------9-----8-------------7-------9-----8------
    |-0-0-0-----------------------0-0-0----------------------
      . . .                       . . .
    --------------------------------------------------------|
    --------------------------------------------------------|
    ---------8-9-8---8-7---7-6-----------8-9-8---8-7---7-6--|
    -------7-------9-----8-------------7-------9-----8------|
    --------------------------------------------------------|
    -0-0-0-----------------------0-0-0----------------------|
     . . .                       . . .
    Riff 2
    |-----------------------------------------------------------------|
    |-----------------------------------------------------------------|
    |-----------------------------------------------------------------|
    |---------------------------------------------------------3-2-----|
    |-------------------------------------------------------4-----3-2-|
    |-000-000-000-000-000-000-000-000-000-000-000-000-0-2-4-----------|
      ... ... ... ... ... ... ... ... ... ... ... ... . . .
    Riff 3
    |-------------------------------------------------------------------
    |-------------------------------------------------------------------
    |-----------------------------------------------------------------3-
    |-----------------------------------------------------------------3-
    |-----------------------------------------------------------------1-
    |-0-5-3-2-0-6-5-3-0-5-3-2-0-6-5-3-0-5-3-2-0-6-5-3-0-5-3-2-0-6-5-3---
      . . . . . . . . . . . . . . . . . . . . . . . . . . . . . . . .
    ---------------------------------------------------------------------|
    ---------------------------------------------------------------------|
    ---------------------------------------------------------------------|
    -----------------------------------------------------------------5/8-|
    -----------------------------------------------------------------5/8-|
    -0-5-3-2-0-6-5-3-0-5-3-2-0-6-5-3-0-5-3-2-0-6-5-3-0-5-3-2-0-6-5-3-3/6-|
     . . . . . . . . . . . . . . . . . . . . . . . . . . . . . . . .
    Riff 4
    |--------------------------------------------------------------------|
    |--------------------------------------------------------------------|
    |--------------------------------------------------------------------|
    |--------------------------------------------------------------------|
    |---------11-15-14----------9-9-13----------11-15-14----------9-9-13-|
    |-0-000-0--9-13-12--0-0000--7-7-11--0-000-0--9-13-12--0-0000--7-7-11-|
      . ... .           . ....          . ... .           . ....
    Riff 5
    |------------------------------------------------|
    |------------------------------------------------|
    |-------------------------------888888888888-----|
    |---------------------------8-7-888888888888-7-7-|
    |-----7-10-8-7-8-------7-10-----666666666666-7-7-|
    |-0000------------0000-----------------------5-5-|
      ....            ....          
    
    
    Riff 1 Variation
    |--------------------------------------------------------
    |--------------------------------------------------------
    |--------------------------------------------------------
    |---------8-9-8---8-7---7-6-----------8-9-8---8-7---7-6--
    |-------7-------9-----8-------------7-------9-----8------
    |-0-0-0-----------------------0-0-0----------------------
      . . .                       . . .
    ----------------------------------------------------------|
    ----------------------------------------------------------|
    ---------9-10-9----9-8---8-7----------9-10-9----9-8---8-7-|
    -------8--------10-----9------------8--------10-----9-----|
    ----------------------------------------------------------|
    -0-0-0------------------------0-0-0-----------------------|
     . . .                        . . .
    rhythm Riff
    |-------------------------|
    |-------------------------|
    |-------------------------|
    |-------------------------|
    |-22-22-22-22-22-22-22-22-|
    |-00-00-00-00-00-00-00-00-|
      .. .. .. .. .. .. .. ..
    Riff 6
    |----------------------------------------|
    |----------------------------------------|
    |----------------------------------------|
    |--------9---------8---------7-----------|
    |---7-10------7-10------7-10------7-10-9-|
    |-7---------7---------7---------7--------|
      .         .         .         .
    Riff 7
    |---------------------------------|
    |---------------------------------|
    |---------------------------------|
    |---------------------------------|
    |-----5/9-----5/8-----5/7-----54-|
    |-0-0-3/7-0-0-3/6-0-0-3/5-0-0-32-|
      . .     . .     . .     . . 
    
    |------------------------------------------------
    |------------------------------------------------
    |------------------------------------------------
    |------------------------------------------------
    |------------------------------------------------
    |-00000000000000000000000000000000000000000000000
    
    -------------------------------------------------
    -------------------------------------------------
    -------------------------------------------------
    -------------------------------------------------
    -------------------------------------------------
    -0000011/777777666333330000011/77777766633333
    
    ---------------------------------------|
    ---------------------------------------|
    ---------------------------------------|
    ---------------------------------------|
    ---------------------------------------|
    -4444444/887777/884444444/887777/88-|
    
    |-------------------------------------------------|
    |-------------------------------------------------|
    |-------------------------------------------------|
    |-------------------------------------------------|
    |-------------------------------------------------|
    |-00000000000000000000000000000000000000000000000-|
     

    Тональность:

    Нет текста!



    Назад
    Рекомендуем посмотреть другие песни исполнителя «Chimaira»:

    • Комментарии Facebook ()
    • Комментарии ВКонтакте



    Добавить в Избранное Браузера
    Сохранить здесь Очистить


    x

    0


    +
    -

    +
    -

    -

    Авторизация





    Зарегистрироваться

    M

    Дата и время

    • 00:13:38
       

    Социальные ссылки


    Наши приложения

    • Muzbank App Play Market
    • Muzbank Amazon App