MUZBANK



A Most Complete Bank Of Music Information

МУЗЫКАЛЬНО-ИНФОРМАЦИОННЫЙ БАНК

Поиск по сайту







    CChimaira • The Dehumanizing Process (аккорды и текст - chords & lyrics)


    197

    Print

    Видео «The Dehumanizing Process (Chimaira)»

    Видео клипы к песне подбираются автоматически сайтом youtube. Возможны некоторые несоответствия клипов песне.

    ↑ Спрятать рекламу ↑



    Download



     
    
    
    Chimaira - The Dehumanizing Process
    TabbeR: Sqweeky
    Tuning: CGCFAD
    
    Riff A
    |----------------------------------------------------|
    |----------------------------------------------------|
    |-----------------------------6666--5555--6666--8888-|
    |----------------7777--8888--------------------------|
    |---6666--6666---------------------------------------|
    |----------------------------------------------------|
    
    Riff B
    |-----------------------|
    |-----------------------|
    |-----------------------|
    |-----------------------|
    |-3-1-0-1--2--3-1-0--2--|
    |-3-1-0-1-----3-1-0-----|
      . . . .     . . .
    
    Riff C
    |------------------------------------------|
    |------------------------------------------|
    |------------------------------------------|
    |------------------------------------------|
    |-3-1-0-1--2----3-1-0--2--------2-----2----|
    |-3-1-0-1-------3-1-0-------3br---3br---1--|
      . . . .       . . . 
     
    Fill
    |------------------------------|
    |------------------------------|
    |------------------------------|
    |----------4h5p4h5p4-3h4p3h4p3-|
    |-2-2-2-2----------------------|
    |------------------------------|
    
    Riff D (guitar 1)
    |------------------------------------|
    |------------------------------------|
    |------------------------------------|
    |------------------------------------|
    |------------------------------------|
    |-6-5-3-0-00000000-6-5-3-0-00000000--|
              ........         ........
    
    There is one riff where G2 plays:
    |-------------------|
    |-------------------|
    |-------------------|
    |-------------------|
    |-------------------|
    |-9-8-6-0-00000000--|
              ........
    
    Fill
    |-----------------------------------------|
    |-----------------------------------------|
    |-----------------------------------------|
    |-5h6p5h6p5-4h5p4h5p4-3h4p3h4p3-2h3p2h3p2-|
    |-----------------------------------------|
    |-----------------------------------------|
    
    Riff E
    |--------------------|
    |--------------------|
    |--------------------|
    |--------------------|
    |-6666-6666^-6-6-----|
    |----------------0-0-|
                     . .
     

    Тональность:

    Нет текста!



    Назад
    Рекомендуем посмотреть другие песни исполнителя «Chimaira»:

    • Комментарии Facebook ()
    • Комментарии ВКонтакте



    Добавить в Избранное Браузера
    Сохранить здесь Очистить


    x

    0


    +
    -

    +
    -

    -

    Авторизация





    Зарегистрироваться

    M

    Дата и время

    • 23:38:05
       

    Социальные ссылки


    Наши приложения

    • Muzbank App Play Market
    • Muzbank Amazon App