MUZBANK



A Most Complete Bank Of Music Information

МУЗЫКАЛЬНО-ИНФОРМАЦИОННЫЙ БАНК

Поиск по сайту







    ЧЧиж и Ко • Полонез (аккорды и текст - chords & lyrics)


    443

    Print

    Видео «Полонез (Чиж и Ко)»

    Видео клипы к песне подбираются автоматически сайтом youtube. Возможны некоторые несоответствия клипов песне.

    ↑ Спрятать рекламу ↑



    Download



    1.------------------------------------------6----6-|
    2.-6------6-8-----8-10-------10----------10-----6--|
    3.-----5--------5------10-------10----12------7----|
    4.---7--------5-----------10-------10-------8------|
    5.-8--------7--------8-----------------------------|
    6.-------------------------------------------------|
    
    1.-5-----5-----------------------------5---------|
    2.---7-----8-----8-----8---6-----6-------8-6-----|
    3.-----5-----5-----5-----5-----7-----6-------5---|
    4.-------------8-----8-------8-----7-----------7-|
    5.-5-------6---------------5---------------5-----|
    6.-----------------------------------------------|
    
    1.---------5-8-6-----------------------------------|
    2.-6-----8---------8---6-----5---6---7---8---5-----|
    3.---5-----------7---7---7-----5---5---5---5---5---|
    4.-----7-----5-------------5---------------------5-|
    5.-------------------------------5---6---7---------|
    6.---------------------------8---------------8-----|
    
    1.-----
    2.---5-
    3.-5-5-
    4.---5-
    5.---3-
    6.-----
    
      F      C      F       A#         D7     Gm
    Давай разроем снег и найдём хоть одну мечту
    A#             C        C7           F C7
    Ты сказала:"ты знаешь, она живет там"
    F     C     F      A#          D7      Gm
    Принесём домой и оставим с собой до весны
        A#       C               F            D7
    А потом с балкона отпустим её - пусть летит
        D#                     C7               F  D7
    Колокольчик в твоих волосах звучит соль диезом
         D#                       C
    Колокольчик в твоих волосах...
    
    Давай разожжем костёр и согреем хоть одну звезду
    Ты сказала, что нужно делать именно так
    Мы будем сидеть у огня и рассказывать друг другу
                                              сны
    А потом нам споёт свою песню первая птица и улетим
    Колокольчик в твоих волосах звучит соль диезом
    Колокольчик в твоих волосах...
    
    F C Am D7 Gm F G7 C F C Am D7 Gm F G7 C
    
    Давай растопим лёд и спасём хоть одну любовь
    Ты сказала мне, что видишь в этом новый восход
    Мы напишем стихи о том как нам хорошо с тобой
    А потом ты научишь меня танцевать полонез
    И мы взлетим ...
    Колокольчик в твоих волосах звучит соль диезом
    Колокольчик в твоих волосах...
    

    Тональность:

    Нет текста!



    Назад
    Рекомендуем посмотреть другие песни исполнителя «Чиж и Ко»:

    • Комментарии Facebook ()
    • Комментарии ВКонтакте



    Добавить в Избранное Браузера
    Сохранить здесь Очистить


    x

    0


    +
    -

    +
    -

    -

    Авторизация





    Зарегистрироваться

    M

    Дата и время

    • 12:54:05
       

    Социальные ссылки


    Наши приложения

    • Muzbank App Play Market
    • Muzbank Amazon App