MUZBANK



A Most Complete Bank Of Music Information

МУЗЫКАЛЬНО-ИНФОРМАЦИОННЫЙ БАНК

Поиск по сайту







    ЧЧиж и Ко • Полонез (аккорды и текст - chords & lyrics)


    223

    Print

    Видео «Полонез (Чиж и Ко)»

    Видео клипы к песне подбираются автоматически сайтом youtube. Возможны некоторые несоответствия клипов песне.

    ↑ Спрятать рекламу ↑



    Download



    Intro:
    
    Гитара 1
        F           C              F                        
    e|--------------------------|--5--------5-----------5--|
    B|--6--------6--8--------8--|-----6--------6-----8-----|
    G|--------5-----------5-----|--------5--------5--------|
    D|-----7-----------5--------|--------------------------|
    A|--8-----------7-----------|--8-----------------------|
    E|--------------------------|--------------------------|
    
    
        B          D7             Eb6                       
    e|--6--------6--5--------5--|--------------------------|
    H|--------6--------7--------|--8--------8--------8-----|
    G|-----7--------------5-----|-----5--------5--------5--|
    D|--8-----------------------|--------8--------8--------|
    A|--------------5-----------|--6-----------------------|
    E|--------------------------|--------------------------|
    
    
        B          A7             Dm7                      
    e|--------------------5-----|-----------------------5--|
    H|--6--------6-----------8--|--6--------6--------8-----|
    G|--------7--------6--------|-----5--------5-----------|
    D|-----8--------7-----------|--------7--------7--------|
    A|--------------------------|--5-----------------------|
    E|--------------------------|--------------------------|
    
    |---  1                                         ----|
        Gm                         C                        
    e|--8--6--------------------|--------------------------|
    H|-----------8-----6--------|--5-----6-----7-----8-----|
    G|--------7-----7-----7-----|-----5-----5--------------|
    D|--5--------------------5--|--------------------------|
    A|--------------------------|--3-----5-----6-----7-----|
    E|--------------------------|--------------------------|
    
    |---  2                                         ----| end of Intro
        Gm                         C                        
     e|--8--6--------------------|---------------8---------|
     H|-----------8-----6--------|---------------8---------|
     G|--------7-----7-----7-----|--9------------9---------|
     D|--5--------------------5--|-----10--------10--------|
     A|--------------------------|---------10----10--------|
     E|--------------------------|--8------------8---------|
    
    
    
    
    
    Гитара 2 (соло к Intro. Играется при втором проигрыше вступления)
                                                                                  
    e|--------------5--6--|
    H|--------------------|
    G|--------------------|
    D|--------------------|
    A|--------------------|
    E|--------------------|
    
    
        F        C         F                      B         D7          
    e|--8--------8~-----|-------------------5--|--5h6-------5h6p5------|
    H|------------------|--6----------6--8-----|-----------------------|
    G|------------------|----------------------|-----------------------|
    D|------------------|----------------------|-----------------------|
    A|------------------|----------------------|-----------------------|
    E|------------------|----------------------|-----------------------|
                                                                  
    
      Eb6                       B       A7          Dm7                  
    e|-----------------------|--------------------|-------------------5--|
    H|--8----------8h10p8p6--|--6--------5--------|--6----------6--8-----|
    G|-----------------------|--------------------|----------------------|
    D|-----------------------|--------------------|----------------------|
    A|-----------------------|--------------------|----------------------|
    E|-----------------------|--------------------|----------------------|
    
    
      Gm                       C                 
    e|--5h8-6-----------------|------------------||
    H|-----------8----6----5--|------------------||
    G|------------------------|------------------||
    D|------------------------|------------------||
    A|------------------------|------------------||
    E|------------------------|------------------||
    
         F      C     F        B          D7    Gm
      Давай разроем снег и найдем хоть одну мечту,
    B                  C                 F   C
      Ты сказала, ты знаешь - она живет там.
    F       C     F        B         D7        Gm
      Принесем домой, и оставим с собой до весны.
    B               C             F            D7add-13 D7   
      А потом с балкона отпустим ее - пусть летит.
    
    Припев:
               Eb                  C                F     D7add-13 D7
          Колокольчик в твоих волосах звучит соль-диезом,
               Eb                  C
          Колокольчик в твоих волосах...
    
      Давай разожжем костер и согреем хоть одну звезду,	   F C F B D7 Gm
      Ты сказала, что нужно делать именно так.	    	   B C F ~ C 
      Мы будем сидеть у огня и рассказывать друг другу сны,  F C F B D7 Gm
           B                  C             F         D7add-13 D7
      А потом нам споет свою песню первая птица - и улетит.	    
    Припев:--//--//--
    
      Давай растопим лед и спасем хоть одну любовь,		   F C F B D7 Gm
      Ты сказала мне, что видишь в этом новый восход.	   B C F ~ C
      Мы напишем стихи, о том, как нам хорошо с тобой,	   F C F B D7 Gm
           B                C                F           D7add-13 D7
      А потом ты научишь меня танцевать полонез - и мы взлетим.
    
    Припев:--//--//--
          
       V                            
    e|-x-|-x-|---|---|  - D7add-13		
    H|-x-|---|-x-|---|		
    G|-x-|---|---|---|	
    D|-x-|---|-x-|---|	
    A|-x-|---|---|---|	
    X|-x-|---|---|---|
    

    Тональность:

    Отправитель: СольДиез

    Нет текста!



    Назад
    Рекомендуем посмотреть другие песни исполнителя «Чиж и Ко»:

    • Комментарии Facebook ()
    • Комментарии ВКонтакте



    Добавить в Избранное Браузера
    Сохранить здесь Очистить


    x

    0


    +
    -

    +
    -

    -

    Авторизация





    Зарегистрироваться

    M

    Дата и время

    • 14:48:51
       

    Социальные ссылки


    Наши приложения

    • Muzbank App Play Market
    • Muzbank Amazon App