MUZBANK



A Most Complete Bank Of Music Information

МУЗЫКАЛЬНО-ИНФОРМАЦИОННЫЙ БАНК

Поиск по сайту







    CChoking Victim • Infested (аккорды и текст - chords & lyrics)


    240

    Print

    Видео «Infested (Choking Victim)»

    Видео клипы к песне подбираются автоматически сайтом youtube. Возможны некоторые несоответствия клипов песне.

    ↑ Спрятать рекламу ↑



    Download



     
    
    
    CV is not a popular band and their Punk Ska Hardcore, Download sone songs theor Good!
    
    Tuning: Standard Eadgbe
    Album: Squattas Paradise
    h= hammer on
    
    Guitar 1 Intro
    e-------------------12----
    b-9-9-10-9-9-12-9-9---9-9- x4
    g-------------------------
    d-------------------------
    a-------------------------
    E-------------------------
    
    e-----------------12-
    b--9-----10---h12----
    g--------------------
    d--------------------
    a--------------------
    E--------------------
    
    Verse 1
    e-------------------------------------
    b-------------------------------------
    g--999999-----------------------------
    d--999999--777777---11 11 11- 5555555-
    a--777777--777777---11 11 11--5555555-
    E----------555555---99999999--7777777-
    
    Verse Pt2 SKa Upstrokes  
    
    e--------------------------
    b--8-----------------------
    g--9---------6-----10----6-
    d--9---------7-----11----7-
    a--7-x4------7-----11----7-
    E------------5x3---9--x3 5- x3
    
    Bridge
    e-------------------12----
    b-9-9-10-9-9-12-9-9---9-9- x4
    g-------------------------
    d-------------------------
    a-------------------------
    E-------------------------
     

    Тональность:

    Нет текста!



    Назад
    Рекомендуем посмотреть другие песни исполнителя «Choking Victim»:

    • Комментарии Facebook ()
    • Комментарии ВКонтакте



    Добавить в Избранное Браузера
    Сохранить здесь Очистить


    x

    0


    +
    -

    +
    -

    -

    Авторизация





    Зарегистрироваться

    M

    Дата и время

    • 07:15:08
       

    Социальные ссылки


    Наши приложения

    • Muzbank App Play Market
    • Muzbank Amazon App