MUZBANK



A Most Complete Bank Of Music Information

МУЗЫКАЛЬНО-ИНФОРМАЦИОННЫЙ БАНК

Поиск по сайту







    CChris Isaak • You Owe Me Some Kind Of Love (аккорды и текст - chords & lyrics)


    315

    Print

    Видео «You Owe Me Some Kind Of Love (Chris Isaak)»

    Видео клипы к песне подбираются автоматически сайтом youtube. Возможны некоторые несоответствия клипов песне.

    ↑ Спрятать рекламу ↑



    Download


    Signature Riff:
    E|------------|
    B|------------|
    G|--------1vv-|
    D|------3-----|
    A|----3-------|
    E|--1---------|
    
    Intro:
    Fb chord fading with volume control. The it's a Fm chord
    overlayed with the main riff and a few neck slides her and ther
    for variety.
    
    Verse 1:
    Fm
    Think of all the things we've done and now,
    Fm
    you've decided I'm not the one.
    Fm
    A love like ours just can't go wrong,
    Fm
    run away baby have your fun but,
    Fm Bbm Fm
    I, I, I, I, don't wana hurt you I don't wanna see you cry.
    Fm Bbm Fm Signautre Riff
    I, I, I, I, just wanna hold your love tonight.
    Fm Signature Riff
    You owe me some kind of love.
    
    Verse 2:
    Fm
    I don't want to see you sad I don't want ya,
    Fm
    feeling down I only want ya,
    Fm
    To say you love me and you need me,
    Fm
    the way I love you please believe me.
    Fm Bbm Fm
    I, I, I, I, don't wana hurt you I don't wanna see you cry.
    Fm Bbm Fm Signature Riff
    I, I, I, I, just wanna hold your love tonight.
    Fm Signature Riff
    You owe me some kind of love.
    Fm
    You owe me some kind of love.
    
    Solo 1: Fm
    E|------------------------------|------------------------------|
    B|-18-18--13-13-6-6-1s4-6-6-4-6-|-18-18--13-13-6-6-1s4-6-6-4-6-|
    G|------------------------------|------------------------------|
    D|------------------------------|------------------------------|
    A|------------------------------|------------------------------|
    E|------------------------------|------------------------------|
    
    E|--------------------------------|
    B|--13-13-13-13--6-6-1s4-6-6-4-6--|
    G|--------------------------------|
    D|--------------------------------|
    A|--------------------------------|
    E|--------------------------------|
    
    E|---------------------------------------------------------1--|
    B|--18-18--13-13-6-6-1s4s1----------1s4s1------------------1--|
    G|-------------------------3-1-1----------3-1-1------------1--|
    D|-----------------------------------------------1h3-3-1---3--|
    A|-------------------------------------------------------1-3--|
    E|---------------------------------------------------------1--|
    
    Verse 3:
    Fm
    Think of all the things we've done and now,
    Fm
    you've decided I'm not the one.
    Fm
    A love like ours just can't go wrong,
    Fm
    run away baby have your fun but,
    Fm Bbm Fm
    I, I, I, I, don't wana hurt you I don't wanna see you cry.
    Fm Bbm Fm
    I, I, I, I, just want you back I don't want to fight.
    Fm Bbm Fm Signature Riff
    I, I, I, I, just wanna hold you love tonight.
    Fm Signautre Riff
    You owe me some kind of love.
    Fm Signature Riff
    You owe me some kind of love.
    Fm
    Help!
    
    Solo 2: Fm
    E|--------------------------------------|------------------------------------|
    B|-18-18-18-18--13-13-13-13--10------10-|-13-13-13-13--10-10-9-10-10-10-9-10-|
    G|-17-17-17-17--13-13-13-13--10--13--10-|-13-13-13-13--10-10-9-10-10-10-9-10-|
    D|-------------------------------13-----|------------------------------------|
    A|--------------------------------------|------------------------------------|
    E|--------------------------------------|------------------------------------|
    
    E|--------------------------------------|------------------------------------|
    B|-18-18-18-18--13-13-13-13--10------10-|-13-13-13-13--10-10-9-10-10-10-9-10-|
    G|-17-17-17-17--13-13-13-13--10--13--10-|-13-13-13-13--10-10-9-10-10-10-9-10-|
    D|-------------------------------13-----|------------------------------------|
    A|--------------------------------------|------------------------------------|
    E|--------------------------------------|------------------------------------|
    
    E|------------------------------------------| Lead needs to use distortion on
    B|--18-18--13-13--10-10-9-10-10-10-10-9-10--| this last solo to really nail a
    G|--17-17--13-13--10-10-9-10-10-10-10-9-10--| blues kind of riff.
    D|------------------------------------------|
    A|------------------------------------------|
    E|------------------------------------------|
    
    E|------------------------------------|
    B|--18-18--13-13--10-10-9-10-10-10-9--|
    G|--17-17--13-13--10-10-9-10-10-10-9--|
    D|------------------------------------|
    A|------------------------------------|
    E|------------------------------------|
    
    E|-1-------------1-------------1-------------1------------1--|
    B|-1-------------1-------------1-------------1------------1--|
    G|-1----1-1------1----1-1------1----1-1------1----1-1-1---1--|
    D|-3---3---------3---3---------3---3---------3---3-----3--3--|
    A|-3--3----------3--3----------3--3----------3--3-------3-3--|
    E|-1-1------1s12-1-1------1s12-1-1------1s12-1-1----------1--|
    

    Тональность:

    Нет текста!



    Назад
    Рекомендуем посмотреть другие песни исполнителя «Chris Isaak»:

    • Комментарии Facebook ()
    • Комментарии ВКонтакте



    Добавить в Избранное Браузера
    Сохранить здесь Очистить


    x

    0


    +
    -

    +
    -

    -

    Авторизация





    Зарегистрироваться

    M

    Дата и время

    • 07:05:37
       

    Социальные ссылки


    Наши приложения

    • Muzbank App Play Market
    • Muzbank Amazon App