MUZBANK



A MOST COMPLETE BANK OF MUSIC INFORMATION

МУЗЫКАЛЬНО-ИНФОРМАЦИОННЫЙ БАНК







    CChuck Berry • Them Still It Away (аккорды и текст - chords & lyrics)


    370

    Print

    Видео «Them Still It Away (Chuck Berry)»

    Видео клипы к песне подбираются автоматически сайтом youtube. Возможны некоторые несоответствия клипов песне.

    ↑ Спрятать рекламу ↑





    E|-------8-8-8-8-8-------------------|
    B|-5s8s7-8-8-8-8-8--5s8s7--8-8-8-8-8-|
    G|-------------------------9-9-9-9-9-|
    D|-----------------------------------|
    A|-----------------------------------|
    E|-----------------------------------|
    
    E|-------8-8-8-7s8-8-8-7s8-8-8-8-8----------|
    B|-5s8s7-8-8-8-7s8-8-8-7s8-8-8-8-8-----9~~~-|
    G|-------------------------------------9~~~-|
    D|------------------------------------------|
    A|------------------------------------------|
    E|------------------------------------------|
    

    Тональность:

    Это должно быть в ТОП-листе! - Топ-лист композиций



    Назад
    Рекомендуем посмотреть другие песни исполнителя «Chuck Berry»:

    • Комменты Fb ()
    • Комменты ВК



    Добавить в Избранное Браузера
    Сохранить здесь Очистить


    x

    0


    +
    -

    +
    -

    -

    Авторизация





    Зарегистрироваться

    M

    Дата и время

    • 01:42:23
       

    Социальные ссылки


    Наши приложения

    • Muzbank App Play Market
    • Muzbank Amazon App