MUZBANK



A Most Complete Bank Of Music Information

МУЗЫКАЛЬНО-ИНФОРМАЦИОННЫЙ БАНК

Поиск по сайту







    CCinderella • Nobody's fool (аккорды и текст - chords & lyrics)


    1109

    Print

    Видео «Nobody's fool (Cinderella)»

    Видео клипы к песне подбираются автоматически сайтом youtube. Возможны некоторые несоответствия клипов песне.

    ↑ Спрятать рекламу ↑



    Download


    
    
     1st Verse
    |-----0-------1---|-----0-------3---|-----0-------1---|--------------------|
    |---1---1---3---3-|---1---1---3---3-|---1---1---3---3-|-------------3------|
    |-----------------|-----------------|-----------------|---0---0---2--------|
    |-----------------|-----------------|-----------------|-----0---0----------|
    |-0-------0-------|-0-------2-------|-0-------0-------|-3-------------2-3--|
    |-----------------|-----------------|-----------------|--------------------|
    
     Chorus
      A5      F5        G5        C5  G5    A5      F5        G5        C5  G5
      Gtr II
      |   |   |   |     | | || | ||   |     |   |   |   |     | | || | ||   |
      /   /   /   /     / x // x //   /     /   /   /   /     / x // x //   /
    
      Gtr I
    |-----0-----------|-------------------|-----0-----------|-------------------||
    |---1---1---1---1-|------3----1-------|---1---1---1---1-|------3----1-------||
    |-------------0---|---4----4----0---0-|-------------0---|---4----4----0---0-||
    |-----------------|---------------3---|-----------------|---------------3---||
    |-0---------------|-----------3-------|-0---------------|-----------3-------||
    |---------1-------|-3-----------------|---------1-------|-3-----------------||
    
    solo
    
      Gtr IV
    |-------0--------1---|------0--------3---|--------0------------1---|
    |-----1---1----3---3-|----1---1----3---3-|-----1-----1-------3---3-|
    |--------------------|-------------------|-------------------------|
    |--------------------|-------------------|-------------------------|
    |--0--------0--------|-0--------2--------|-0-------------0---------|
    |--------------------|-------------------|-------------------------|
    |
    | Gtr III
    |  <        <          <        <
    |--------------------|-------------------|-------------------------|
    |-10\-------8\-------|-------------------|-------------------------|
    |--------------------|-9\-------7\-------|-4s5---(5)-5-5-5s7---9---|
    |--------------------|-------------------|-------------------------|
    |--------------------|-------------------|-------------------------|
    |--------------------|-------------------|-------------------------|
    
    
    |-----------------------------------------||
    |-----------------------------3-----------||
    |-----------0-------0-----2---------------||
    |---------------0-----0-------------------||
    |--3----------------------------------2-3-||
    |-----------------------------------------||
    |
    |-----------------------------------------||
    |-----------------------------------------||
    |-10-9h10p9-7-9-7-5-7-4-5-4-5-7-5h7p5-4---||
    |---------------------------------------5-||
    |-----------------------------------------||
    |-----------------------------------------||
    
    
     2nd Verse
    |------0--------1---|-----0-------3---|
    |---1-----1---3---3-|---1---1---3---3-|
    |-------------------|-----------------|
    |-------------------|-----------------|
    |-0---------0-------|-0-------2-------|
    |-------------------|-----------------|
    |
    |-------------------|-----------------|
    |-------------------|-----------------|
    |-------------------|-----------------|
    |-5s7-(7)-----------|-----------------|
    |-------------------|-----------------|
    |-------------------|-----------------|
    
    TEXT SONG
    
    I count the falling tears 
    They fall before my eyes 
    Seems like a thousand years 
    Since we broke the ties 
    
    I call you on the phone 
    But never get a rise 
    So sit there all alone 
    It's time you realise 
    
    I'm not your fool 
    Nobody's fool 
    Nobody's fool 
    I'm not fool 
    Nobody's fool 
    Nobody's fool 
    Never again,no,no 
    
    You take your road 
    I'll take mine 
    The paths have both been beaten 
    Searchin' for a change of pace 
    Love needs to be sweetened 
    
    I scream my heart out 
    Just to make a dime 
    And with that dime 
    I bought your love 
    But now I changed my mind 
    
    I'm not your fool 
    Nobody's fool 
    Nobody's fool 
    I'm not fool 
    Nobody's fool 
    Nobody's fool 
    No,no,no 
    Nobody's fool 
    Nobody's fool 
    
    I count the falling tears 
    They falling from my eyes 
    Seems like a thousand years 
    Since we broke the ties 
    
    i'm not your fool 
    Nobody's fool 
    Nobody's fool 
    I'm not fool 
    Nobody's fool 
    Nobody's fool 
    I'm not fool 
    Nobody's fool 
    Nobody's fool 
    I'm not fool
    
    

    Тональность:

    Нет текста!



    Назад
    Рекомендуем посмотреть другие песни исполнителя «Cinderella»:

    • Комментарии Facebook ()
    • Комментарии ВКонтакте



    Добавить в Избранное Браузера
    Сохранить здесь Очистить


    x

    0


    +
    -

    +
    -

    -

    Авторизация





    Зарегистрироваться

    M

    Дата и время

    • 01:32:41
       

    Социальные ссылки


    Наши приложения

    • Muzbank App Play Market
    • Muzbank Amazon App