MUZBANK



A Most Complete Bank Of Music Information

МУЗЫКАЛЬНО-ИНФОРМАЦИОННЫЙ БАНК

Поиск по сайту







    CCky • Frenetic Amnesic (аккорды и текст - chords & lyrics)


    160

    Print

    Видео «Frenetic Amnesic (Cky)»

    Видео клипы к песне подбираются автоматически сайтом youtube. Возможны некоторые несоответствия клипов песне.

    ↑ Спрятать рекламу ↑



    Download



     
    
    
    band   - cky
    song   - frenetic amnesic
    album  - infiltrate-destroy-rebuild
    tabber - jaymnhhngbfs
    
    Tuning: Full step down (DGCF)
    
    intro/verse:
    F:-----------------------------------------|
    C:-----------------------------------------|
    G:---------3------------3---5--3--------3--|
    D:5-3-5--3---3-5-3-5--3---3-------5--1----1|
    
    fill:
    F:-----------|
    C:-----------|
    G:--3-------5|
    D:5---5-3-3--|
    
    chorus riff1:
    F:---------------------------|
    C:---------------------------|
    G:------------------------3--|
    D:5-5-5-5-5-5-1-1-1-1-1-1---3|
    
    chorus riff2:
    F:-----------------------------|
    C:-----------------------------|
    G:5-5-5-5-5-3-5-7-7-7-7-8-7-5-3|
    D:-----------------------------|
    
    bridge/breakdown:
    F:-------------------------|
    C:-------------------------|
    G:-------------3----3-5p3--|
    D:5----5-0-1/3------------3|
    
    Structure:
    Intro/verse: 5x
    fill:1x
    Chorus1:2x
    Chorus2:1x
    Chorus1:1x
    Intro/verse: 5x
    fill:1x
    Chorus1:2x
    Chorus2:1x
    Chorus1:3x
    chorus2:1x
    chorus1:1x
    bridge:6x
    fill:1x
    Intro/verse: 6x
    fill:1x
     

    Тональность:

    Нет текста!



    Назад
    Рекомендуем посмотреть другие песни исполнителя «Cky»:

    • Комментарии Facebook ()
    • Комментарии ВКонтакте



    Добавить в Избранное Браузера
    Сохранить здесь Очистить


    x

    0


    +
    -

    +
    -

    -

    Авторизация





    Зарегистрироваться

    M

    Дата и время

    • 07:42:55
       

    Социальные ссылки


    Наши приложения

    • Muzbank App Play Market
    • Muzbank Amazon App