MUZBANK



A MOST COMPLETE BANK OF MUSIC INFORMATION

МУЗЫКАЛЬНО-ИНФОРМАЦИОННЫЙ БАНК







    CCky • Rio Bravo (аккорды и текст - chords & lyrics)


    279

    Print

    Видео «Rio Bravo (Cky)»

    Видео клипы к песне подбираются автоматически сайтом youtube. Возможны некоторые несоответствия клипов песне.

    ↑ Спрятать рекламу ↑





     
    
    
    Intro:(Repeat 2wice)
    G:-------------------------------------------|
    D:-7-6-5----------3--------------------------|
    A:-------5--3-4-5---7-6-5--------------------|
    D:------------------------7-5-6-7--7-6-5-3-0-|  
    
    G:--------------------------------------------------|
    D:-7-6-5----------3---------------------------------|
    A:-------5--3-4-5---7-6-5--------------------------3|
    D:------------------------7-5-6-7--7-6-5-3-0-3-4-5--|X1
    
    G:-------------------|
    D:-------------------|
    A:-----------------3-|
    D:-7-6-5-3-0-3-4-5---| X2
      
    
       BY gAz: not a big cky fan
     

    Тональность:

    Это должно быть в ТОП-листе! - Топ-лист композиций



    Назад
    Рекомендуем посмотреть другие песни исполнителя «Cky»:

    • Комменты Fb ()
    • Комменты ВК



    Добавить в Избранное Браузера
    Сохранить здесь Очистить


    x

    0


    +
    -

    +
    -

    -

    Авторизация





    Зарегистрироваться

    M

    Дата и время

    • 18:04:11
       

    Социальные ссылки


    Наши приложения

    • Muzbank App Play Market
    • Muzbank Amazon App