MUZBANK



A Most Complete Bank Of Music Information

МУЗЫКАЛЬНО-ИНФОРМАЦИОННЫЙ БАНК

Поиск по сайту







    CClapton Eric • Tearing Us Apart (аккорды и текст - chords & lyrics)


    269

    Print

    Видео «Tearing Us Apart (Clapton Eric)»

    Видео клипы к песне подбираются автоматически сайтом youtube. Возможны некоторые несоответствия клипов песне.

    ↑ Спрятать рекламу ↑



    Download


    INTRO riff 1
    e|--------------|------------------------------------------|
    B|--------------|*--7--5-----7-------------5b----5b-------*|
    G|--------------|---7--5--7--7-------------5b----5b--------|
    D|-------5~--7--|---------7---------5--7------7-------5--7-|
    A|--/7~---------|*-----------------7-----------------7----*|
    E|--------------|---------play-this-riff-4-times-----------|
    
    
    riff 2
    |--------------------------------------------------------|
    |*-------------------------------------------------------|
    |--12/14--14--14⁄12--10--12/14----12/14--14--14⁄12--10---|
    |--------------------------------------------------------|
    |*-------------------------------------------------------|
    |--------------------------------------------------------|
    
    
    
    |-------------------------------------------------------|
    |------------------12brp10------10b------10b---play----*|
    |--12⁄14~--10------12brp10------10b------10b---this-----|
    |-------------14~-----------12-------12--------riff-----|
    |----------------------------------------------twice---*|
    |-------------------------------------------------------|
    
    
    play riff 1 8 times with verse
    
    
    chorus
    |--------------------|-------------------------------------|
    |*-12brp10--12--10b-*|---12p10--12~---12p10--12----12--10b-|
    |--12brp10--12--10b--|---12p10--12~---12p10--12----12--10b-|
    |--------------------|--------------------------12---------|
    |*------------------*|-------------------------------------|
    |---play-3-times-----|-------------------------------------|
    
    
    riff 2 twice again
    riff 1 for second verse
    chorus
    
    
    now there's kind of a breakdown
    |--------------------------------------|
    |*------------------------------------*|
    |-----------------5b-------------------|
    |--7--5----5-7-7b-----7--5----5--7-7b--|
    |*------5------------------7----------*|
    |--------------------------------------|
    
    
    
    |------------------------------5---|
    |------------------------------5---|
    |-----------------5b-----------5---|
    |--7--5---5--7-7b-----7brp5--------|
    |-------5--------------------7-----|
    |----------------------------------|
    
    riff 1 over slide solo
    chorus
    

    Тональность:

    Нет текста!



    Назад
    Рекомендуем посмотреть другие песни исполнителя «Clapton Eric»:

    • Комментарии Facebook ()
    • Комментарии ВКонтакте



    Добавить в Избранное Браузера
    Сохранить здесь Очистить


    x

    0


    +
    -

    +
    -

    -

    Авторизация





    Зарегистрироваться

    M

    Дата и время

    • 19:41:09
       

    Социальные ссылки


    Наши приложения

    • Muzbank App Play Market
    • Muzbank Amazon App