MUZBANK



A Most Complete Bank Of Music Information

МУЗЫКАЛЬНО-ИНФОРМАЦИОННЫЙ БАНК

Поиск по сайту







    CClapton Eric • Wonderful Tonight (аккорды и текст - chords & lyrics)


    252

    Print

    Видео «Wonderful Tonight (Clapton Eric)»

    Видео клипы к песне подбираются автоматически сайтом youtube. Возможны некоторые несоответствия клипов песне.

    ↑ Спрятать рекламу ↑



    Download



     
    
    
    Wonderful Tonight By Eric Clapton(Bass Tab) 
    Tabbed By Johan Azmir 
    
    Intro(Play Twice)
    1 |------------------------------|
    2 |5--5-4----------2-0-2/4/75---|       (1)
    3 |----------5-3----3------------|
    4 |------------------------------|
    
    Verse
    1 |------------------------------|
    2 |5--5-4----------2-0--2-4------|       (2)
    3 |----------5-3----3------------|
    4 |------------------------------|
    
    1 |------------------------------|
    2 |5--5-4----------2-0--0--------|       (3)
    3 |----------5-3----3-----0-2-3--|
    4 |------------------------------|
    
    1 |------------------------------|
    2 |2-0--2--4---5-----4-----2-----|       (4)
    3 |-3----------------------------|
    4 |------------------------------|
    
    1 |------------------------------|
    2 |0---------2-0---2--4----------|       (5)
    3 |--0-3------3------------------|
    4 |------------------------------|
    
      Play according to this order:
    
      (1) x 1 time
      (2) x 1 time
      (3) x 1 time
      (4) x 1 time
      (5) x 1 time
    
      Then play this:
    
    1 |------------------------------|
    2 |5-2-0------------0--4--5--4--2|
    3 |---------0-2-3--3-------------|
    4 |------3-----------------------|
    
    1 |------------------------------|
    2 |--0---------0-----------2-0---|
    3 |----0--3--3-----0-2-3---------|
    4 |------------------------------|
    
      Then follow this order:
    
      (1) x 2 times
      (2) x 1 time
      (3) x 1 time
      (4) x 1 time
    
      Followed by this:
    
    1 |------------------------------|
    2 |0-------2-0--2-4--5---4---2--0|
    3 |--0-3--3----------------------|
    4 |------------------------------|
    
    1 |------------------------------|
    2 |----2-0------2--4--5----------|
    3 |3-----------------------------|
    4 |------------------------------|
    
      Play this once:
    
      (1) 1 time
    
      Finish off with this:
    
    1 |------------------------------|
    2 |5---5-4----0h2--0---2/4/75---|
    3 |-------5-3--------------------|
    4 |------------------------------|
    
    Any comments or suggestions please email joazmir@rocketmail.com
     

    Тональность:

    Нет текста!



    Назад
    Рекомендуем посмотреть другие песни исполнителя «Clapton Eric»:

    • Комментарии Facebook ()
    • Комментарии ВКонтакте



    Добавить в Избранное Браузера
    Сохранить здесь Очистить


    x

    0


    +
    -

    +
    -

    -

    Авторизация





    Зарегистрироваться

    M

    Дата и время

    • 23:45:33
       

    Социальные ссылки


    Наши приложения

    • Muzbank App Play Market
    • Muzbank Amazon App