MUZBANK



A Most Complete Bank Of Music Information

МУЗЫКАЛЬНО-ИНФОРМАЦИОННЫЙ БАНК

Поиск по сайту







    CClapton Eric • Wonderful Tonight (аккорды и текст - chords & lyrics)


    175

    Print

    Видео «Wonderful Tonight (Clapton Eric)»

    Видео клипы к песне подбираются автоматически сайтом youtube. Возможны некоторые несоответствия клипов песне.

    ↑ Спрятать рекламу ↑



    Download



     
    
    
    The other tabs are so off but this one is right.
    tab by: Justin Bunz
    
    Intro
    time = 95
    
    guitar 1(clean)
      G                D/F#            C/E             D
    e----------------|--------2------|--------0------|---------------|  
    b-----3-----3----|----3-----3----|----1-----1----|----3-----3----|
    g---4-----4---4--|--2---------2--|--0---------0--|--2-----2---2--|
    d-5-----5-------5|4-----4-------4|2-----2-------2|0-----0-0-----0|
    a----------------|---------------|---------------|---------------|
    e----------------|---------------|---------------|---------------|
     (let ring)
    
    guitar 2(clean)
    
    e---------3------|--------2------|--------0------|---------------|
    b-----3-----3----|----3-----3----|----1-----1----|---------------|
    g---4---------4--|--2---------2--|--0---------0--|2--4--5---5/9--|
    d-5-----5-------5|4-----4-------4|2-----2-------2|4--5--7---7/10-|
    a----------------|---------------|---------------|---------------|
    e----------------|---------------|---------------|---------------|
     (let ring)
    
    guitar 3(clean)
    
    e----------------|---------------|---------------|
    b-10b-(10)-8--10-|10b-(10)-8-----|10b-(10)-8-10--|
    g----------------|------------9--|---------------|
    d----------------|---------------|---------------|
    a----------------|---------------|---------------|
    e----------------|---------------|---------------|
    
    (g.1)
      G               D/F#            C/E             D
    e----------------|--------2------|--------0------|--------2-------|
    b-----3-----3----|----3-----3----|----1-----1----|----3---3-3-----|
    g---4-----4---4--|--2---------2--|--0---0-----0--|--2---2-----2---|
    d-5-----5-------0H4-----4-------4|2-------------2|0-------------0-|
    a----------------|---------------|---------------|----------------|
    e----------------|---------------|---------------|----------------|
    
    (g.2)
    
    e----------------|----5-----5----|-------3-----3-|----------------|
    b--------8------8|--7-----7---7--|--3--------5---|----------------|
    g-7--------7-----|------7-------7h5---5----------|2--4--5---5/9---|
    d-9----------/9--|---------------|---------------|4--5--7---7/10--|
    a----------------|---------------|---------------|----------------|
    e----------------|---------------|---------------|----------------|
    
    (g.3)
    
    e----------------|---------------|---------------|----------------10h12|
    b-10b-(10)-8--10-|10b-(10)-8-----|10b-(10)-8-10--|10-10/12--12/13------|
    g----------------|------------9--|---------------|---------------------|
    d----------------|---------------|---------------|---------------------|
    a----------------|---------------|---------------|---------------------|
    e----------------|---------------|---------------|---------------------|
    
    
    
    Verse
    
    (g.1)
      G               D/F#            C/E             D
    e | |---------3------|---------------|---------------|---------------------|
    b |.|-----3-----3----|----3-----3----|----1-------1--|-----3------3--------|
    g | |---4---4-----4--|--2-----2---2--|--0---0---0---0|---2------2----0-----|
    d |.|-5-------------5|4-----4-------4|2-------2------|-0------0------------|
    a | |----------------|---------------|---------------|---------------------|
    e | |----------------|---------------|---------------|---------------------|
    
    (g.2)
    
    e----------------|------5--------|---------------|--------5------------|
    b----------------|----5---5------|---------------|---7------7----------|
    g-7--------------|----------7----|5--------------|-7---7------7--------|
    d-9--------------|---------------|---------------|---------------------|
    a----------------|---------------|---------------|---------------------|
    e----------------|---------------|---------------|---------------------|
    
    (g.3)
    
    e-10-------------|---------------|---------------|---------------------|
    b----------------|---------------|---------------|---------------------|
    g----------------|---------------|---------------|---------------------|
    d----------------|---------------|---------------|---------------------|
    a----------------|---------------|---------------|---------------------|
    e----------------|---------------|---------------|---------------------|
    
    (g.1)
     G                D/F#            C/E             D 
    e----------------|---------------|---------------|---------2------------|
    b-----3------3---|----3-----3----|----1-----1----|----3------3----------|
    g---4---4------2-|--2-----2---2--|--0---0-----0--|--2---2---------------|
    d-5-------5------|4-----4-------4|2-------1-----2|0---------------------|
    a----------------|---------------|---------------|--------------0-2-----|
    e----------------|---------------|---------------|----------------------|
    
    (g.2)
    
    e-7~~------------|---5-----------|---------------|---5------------------|
    b-8~~------------|------7-h-5----|---------------|-------7---5----------|
    g-7~~------------|-------------7-|--7/5----------|-7---7---7---7-------|
    d----------------|---------------|---------------|----------------------|
    a----------------|---------------|---------------|----------------------|
    e----------------|---------------|---------------|----------------------|
    
    
    (g.1)
      Cadd9           D               G      D        Em
    e----------------|---------------|---------------|-------0--(0)---------|
    b-----3----3-----|-----3----3----|----3------3---|-------0--(0)---------|
    g-------0----0---|---2----2---2--|------0----2-2-|-----0-0--(0)---------|
    d---2----------2-|-0----0-------0|-0-------0-----|---2-2--------2h0-----|
    a-3--------------|---------------|---------------|---2---------------2--|
    e----------------|---------------|---------------|-0--------------------|
    
    (g.2)
    
    e---------3------|--------5------|----7-------5--|--------7-------------|
    b----3------3----|--5---5---5----|--8-------7---7|---8------------------|
    g-5---5------5--|7---7-------7--|7-----7-7------|-9---7-----9--7-------|
    d----------------|--------------7|---------------|----------------------|
    a----------------|---------------|---------------|----------------------|
    e----------------|---------------|---------------|----------------------|
    
    (g.1)                            ______________________________________ 
                                     |1.
     C                D               G               D/F#
    e----------------|---(2)(2)------|---------------|----------0----------|
    b----------------|----3--3--3----|----3-----3----|----3-----3----------|
    g-----0-----0---0|--2-2--2----2--|--4-----4---4--|--2-----2------------|
    d---2---2-----2--|0-------------0|5-----5-------0|4-----4------4------|
    a-3--------------|---------------|---------------|---------------------|
    e----------------|---------------|---------------|---------------------|
    
    (g.2)
    
    e----3-----------|-----------5---|----3-----3----|-------2--------------|
    b------3---5-----|5---7--7-------|--3-----3------|----3----3------------|
    g5------5-------|--7------------|4-----4--------|--2--------2----------|
    d----------------|---------------|--------------54------------4--------|
    a----------------|---------------|---------------|----------------------|
    e----------------|---------------|---------------|----------------------|
    
    (g.3)
    
    e----------------|---------------|---------------|----------------------|
    b----------------|---------------|10b-(10)-8-10--|-10b-(10)-8-----------|
    g----------------|---------------|---------------|-------------9--------|
    d----------------|---------------|---------------|----------------------|
    a----------------|---------------|---------------|----------------------|
    e----------------|---------------|---------------|----------------------|
    
    ___________________________________ _____________________
    (g.1)                              ||2.
     C/E               D                 G
    e----------0------|---------2------| |---------------------|
    b------1-----1----|----3------3----|.|--------3--------3---|
    g----0---------0--|--2---2------2--| |----------0---0----0-|
    d-2-----2-------2|0--------------0|.|-----0------0--------|
    a-----------------|----------------| |-2~------------------|
    e-----------------|----------------| |-3~------------------|
    
    (g.2)
    
    e---------0-----|------------------|------7-------7------|
    b-----1-----1---|------------------|----8---8---8--------|
    g---0---------0-|-2--4--5---5/9----|--7-------7----------|
    d-2-----2-------|-4--5--7---7/10---|---------------------|
    a---------------|------------------|---------------------|
    e---------------|------------------|---------------------|
    
    (g.3)
    
    e-----------------|-----------------10h12|--------------10--10-|
    b------10b-(10)-8-|-10--10/12---13-------|-----8-10/12---------|
    g-(9)-------------|----------------------|-7/9-----------------|
    d-----------------|----------------------|---------------------|
    a-----------------|----------------------|---------------------|
    e-----------------|----------------------|---------------------|
    
    (g.1)              Bridge
                        C                     D         Csus2
    e-----------------||----------0-----------|-----2---------------|
    b--------3--------||------1---------1h0---|-------3-----3-------|
    g----------0------||----0---0-------------|---2--------------0--|
    d-----0-----------||-------------2--------|-0--------------0----|
    a-2~----------0-2-||-3--------------------|----------3----------|
    e-3~--------------||----------------------|---------------------|
    
    (g.2)
                     
    e-(7)----7---------||-----3---------------|------5---------5----|
    b-----10---8--8--8~||--------3-----3------|-5/7-------7---------|
    g------------------||-----------5---------|---------7---7-------|
    d------------------||--5------------------|---------------------|
    a------------------||---------------------|---------------------|
    e------------------||---------------------|---------------------|
    
    (g.3)
    
    e-10h12~~~10---------||-------------------|---------------------|
    b------------1210--8||----8---(8)~~~~~~~~|---------------------|
    g--------------------||-/9----------------|---------------------|
    d--------------------||-------------------|---------------------|
    a--------------------||-------------------|---------------------|
    e--------------------||-------------------|---------------------|
    
    (g.1)
     G          D/F#     Em                    C
    e-------------------|---------------------|---------------------|
    b-----3---------3---|---------------------|---1-------1---------|
    g---0---0-----2---2-|----------0--4-------|---0--0------0-------|
    d-------------------|------0h2-------2--0-|---2----2-------2----|
    a-------------------|---2-----------------|-3-------------------|
    e-3---------2-------|-0-------------------|---------------------|
    
    (g.2)
    
    e-----7-------5---|--------7-------------|--------3-------------|
    b---8---8---7-----|---8---------8----0---|---5-------5----------|
    g-7-------7------7/9--------------9------|-5---5-------5--------|
    d-----------------|----------------------|---------------5------|
    a-----------------|----------------------|----------------------|
    e-----------------|----------------------|----------------------|
    
    (g.1)
      D                C                 D
    e-----------------|-----0-----------|--2~~------------------------------|
    b---3--------3-0--|--------1--------|--3~~------------------------------|
    g-----2----2---0--|-----------0-----|--2~~------------------------------|
    d-0-----0---------|-----------------|--0~~------------------------------|
    a-----------------|-3---------------|-----------------------------------|
    e-----------------|-----------------|-----------------------------------|
    
    (g.2)
    
    e--------5--------|--------3--------|--5~~------------------------------|
    b---5------7------|---5-------5-----|--7~~------------------------------|
    g-7---7------75--|-5---5-------5---|--7~~------------------------------|
    d-----------------|-----------------|-----------------------------------|
    a-----------------|-----------------|-----------------------------------|
    e-----------------|-----------------|-----------------------------------|
    
    Interlude
    (g.1)
      G                D/F#             C/E            D
    e-----------------|----------------|---------0----|---------2-----------|
    b-----3-----3-----|-----3-----3----|----1------1--|-----3---3--3--------|
    g---4-----4---2--0|---2-----2---2--|--0----------0|---2-----2----0------|
    d-5-----5---------|-4-----4--------|2-----2------2|-0-----0-------------|
    a-----------------|----------------|--------------|---------------------|
    e-----------------|----------------|--------------|---------------------|
    
    (g.2)
    
    e-----------------|----------------|--------------|---------------------|
    b-----3-----3-----|-----3-----3----|-----1-----1--|---------------------|
    g---4-----4---2-0-|---2-----2---2--|---0-----0---0|-2--4--5--5/9--------|
    d-5-----5---------|-4-----4-------4|-2-----2------|-4--5--7--7/10-------|
    a-----------------|----------------|--------------|---------------------|
    e-----------------|----------------|--------------|---------------------|
    
    (g.3)
    
    e----------------|---------------|---------------|----------------10h12|
    b-10b-(10)-8--10-|10b-(10)-8-----|10b-(10)-8-10--|10-10/12--12/13------|
    g----------------|------------9--|---------------|---------------------|
    d----------------|---------------|---------------|---------------------|
    a----------------|---------------|---------------|---------------------|
    e----------------|---------------|---------------|---------------------|
    
    (g.1)
    G                 D/F#            C/E             D
    e----------------|---------------|---------------|----------2-----------|
    b-----3-----3----|----3-----3----|----1-----1----|-----3------3---------|
    g---4-----4---4--|--2-----2---2--|--0-----0------|---2---2------2-------|
    d-5-----5-------0|4-----4-------4|2-----2--------|-0--------------0-----|
    a----------------|---------------|------------3-2|----------------------|
    e----------------|---------------|---------------|----------------------|
    
    (g.2)
    
    e----------------|----5------5----|------3-------|----------------------|
    b----------------|--7---7--5-----5|--3------3----|----------------------|
    g-7--------------|7------------7--|5---5------5--|2--4--5-----5/9-------|
    d-9--------------|----------------|--------------|4--5--7-----7/10------|
    a----------------|----------------|--------------|----------------------|
    e----------------|----------------|--------------|----------------------|
    
    (g.3)
    
    e----------------|---------------|---------------|----------------10h12|
    b-10b-(10)-8--10-|10b-(10)-8-----|10b-(10)-8-10--|10-10/12--12/13------|
    g----------------|------------9--|---------------|---------------------|
    d----------------|---------------|---------------|---------------------|
    a----------------|---------------|---------------|---------------------|
    e----------------|---------------|---------------|---------------------|
    
    (g.1)
      G        D       Em7            C                     D
    e-----------------|--------------|---------------------|---------------|
    b------3---------3|--------------|---------1-----------|----1------3---|
    g----0---0-2---2--|---------0----|-----0---0--0--------|--2------2---4-|
    d----0-------0----|----0-2----0--|---2----------2------|0-----0--------|
    a-----------------|--2----------2|-3---------------3---|---------------|
    e-3---------------|0-------------|---------------------|---------------|
    
    (g.2)
    
    e-----7-----5-----|------7-------|------------3-------|------5----------|
    b---8-----7-------|--8-8---8-10--|--5h3---3h5---5h3---|--7-------7------|
    g-7-----7-----7---|9------------4|5-----5-------------|7---7-------7----|
    d-----------------|--------------|--------------------|-----------------|
    a-----------------|--------------|--------------------|-----------------|
    e-----------------|--------------|--------------------|-----------------|
    
    (g.3)
      (3/4)--(full)----|  
    e--------------|---------------------------|----------------------------|
    b-10B----(10)--|--(10)-8-------------------|----------------------------|
    g--------------|----------9--7/9--7--------|----------------------------|
    d--------------|---------------------9/7--5|----------------------------|
    a--------------|---------------------------|----------------------------|
    e--------------|---------------------------|----------------------------|
    
    Outro
    (g.1)
     G                   D/F#           C/E                D
    e---------------3--|---------------|---------0--------|--2-2-2-----2-2-2-----|
    b-----3-------3----|----3-----3----|----1----1-1---1-1|--3-3-3-----3-3-3-----|
    g-4-4------4-------|--2-----2------|--0---0--------0-0|--------2-2---2-2----0|
    d-------5---------5|4-----4-------2|2------2-----2----|0-------0-0-------0---|
    a------------------|------------2--|------------------|----------------------|
    e------------------|---------------|------------------|----------------------|
    
    (g.2)
    
    e-------7------|------5----------|-------3--3----|---------------------------|
    b---8------8---|--7------7-------|--5-------3---3|-2--4--5-----5/9-----------|
    g-7---7------7-|7---7------7-----|5---5-------5--|-4--5--7-----7/10----------|
    d--------------|-----------------|---------------|---------------------------|
    a--------------|-----------------|---------------|---------------------------|
    e--------------|-----------------|---------------|---------------------------|
    
    (g.3)
        (full)--|          (full)------|
    e-------------------|--------10--|---------------|-10/12-10h12~~12-10~~12-(12)|
    b-10b-----(10)-8--10|-10b--------|(10)-8---8~~~~~|----------------------------|
    g-------------------|------------|-------9-------|----------------------------|
    d-------------------|------------|---------------|----------------------------|
    a-------------------|------------|---------------|----------------------------|
    e-------------------|------------|---------------|----------------------------|
    
    (g.1)
     G                 D/F#            C/E              D                G
    e-----------------|---------------|----------------|------------2-|--3------|
    b-----3-----3-----|----3-----3----|----1-----1-----|----3-----3-3-|--0------|
    g---4-----4---2-0-|--2-----2-----2|--0-----0-----0-|--2-----2---2-|--0------|
    d-5-----5---------|4-----4-----4--|2-----2-----2---|0-----0-----0-|-(0)-----|
    a-----------------|---------------|----------------|--------------|-(2)-----|
    e-----------------|---------------|----------------|--------------|-(3)-----|
    
    (g.2)
    
    e---------3-|-5-----5--------|--------3------|--------------------|---------|
    b-----------|---7-----7---5--|---5---------5-|-7---8--10--10/13---|-12------|
    g-7---------|-----7-----7---7|-5---5-----5---|-7---9--11--11/14---|-12------|
    d-9----5----|----------------|---------------|--------------------|---------|
    a-----------|----------------|---------------|--------------------|---------|
    e-----------|----------------|---------------|--------------------|---------|
    
    (g.3)
        (full)-|               (full)-|         (full)-|
    e-----------------|----------------------|--------------|------------10/12|-10-|
    b-10b----(10)-8-10|-(10)--10b----(10)-8--|-10b----(10)-8|10/12-12-13------|----|
    g-----------------|---------------------9|--------------|-----------------|----|
    d-----------------|----------------------|--------------|-----------------|----|
    a-----------------|----------------------|--------------|-----------------|----|
    e-----------------|----------------------|--------------|-----------------|----|
     

    Тональность:

    Нет текста!



    Назад
    Рекомендуем посмотреть другие песни исполнителя «Clapton Eric»:

    • Комментарии Facebook ()
    • Комментарии ВКонтакте



    Добавить в Избранное Браузера
    Сохранить здесь Очистить


    x

    0


    +
    -

    +
    -

    -

    Авторизация





    Зарегистрироваться

    M

    Дата и время

    • 03:15:40
       

    Социальные ссылки


    Наши приложения

    • Muzbank App Play Market
    • Muzbank Amazon App