MUZBANK



A Most Complete Bank Of Music Information

МУЗЫКАЛЬНО-ИНФОРМАЦИОННЫЙ БАНК

Поиск по сайту







    CClash • White Riot (аккорды и текст - chords & lyrics)


    307

    Print

    Видео «White Riot (Clash)»

    Видео клипы к песне подбираются автоматически сайтом youtube. Возможны некоторые несоответствия клипов песне.

    ↑ Спрятать рекламу ↑



    Download



     
    
    
    song: White riot
    author: The Clash
    bass tabber: bOldra@tiscali.it (change b0ldra to boldra)
                                                                                    
    INTRO & RIT
    ---------|    |---------
    ---------|    |---------
    ---5---5-|(X3)|55-/-7---
    555--5---|    |-------5-
                                                                                    
    BRIDGE
    ---2--(2)--2-2-----
    -2---2---2-----2---
    -------------------
    -------------------
    BRIDGE 1
    -------------------------------
    -----------------0---0---0-0---
    -0---0---0-----0---0---0-----0-
    -------------------------------
                                                                                    
    RIT
    {
     --------------------------------
     553322--------------------------
     ------553322----33333333--------
     ------------5533--------33333333-->
                                                                                    
     --------------------------------
     ----------223344----------------
     --22334455------33333333--------
     33----------------------33333333-->
                                                                                    
     -------------------------------
     -------------------------------
     3333333333335-7-------------7-5
     ----------------555555555555----->
                                                                                    
     ------------------------9-9-9-9-
     --------------------------------
     3333333333335-7-7-7-7-7---------
     --------------------------------
    }
     

    Тональность:

    Нет текста!



    Назад
    Рекомендуем посмотреть другие песни исполнителя «Clash»:

    • Комментарии Facebook ()
    • Комментарии ВКонтакте



    Добавить в Избранное Браузера
    Сохранить здесь Очистить


    x

    0


    +
    -

    +
    -

    -

    Авторизация





    Зарегистрироваться

    M

    Дата и время

    • 23:16:04
       

    Социальные ссылки


    Наши приложения

    • Muzbank App Play Market
    • Muzbank Amazon App