MUZBANK



A MOST COMPLETE BANK OF MUSIC INFORMATION

МУЗЫКАЛЬНО-ИНФОРМАЦИОННЫЙ БАНК







    CCoal Chamber • Anything But You (аккорды и текст - chords & lyrics)


    185

    Print

    Видео «Anything But You (Coal Chamber)»

    Видео клипы к песне подбираются автоматически сайтом youtube. Возможны некоторые несоответствия клипов песне.

    ↑ Спрятать рекламу ↑






     
    
    
    Band: Coal Chamber
    Song: Anything but you
    By Jonathan Bissonnette
    
    Tuning B E A D G B
    
    Verse w/chorus
    
    |------------------------|
    |------------------------|
    |------------------------|
    |------------------------|
    |-7-8-10-8-7-5-5-3-5-7-7-|
    |------------------------|
    
    Chorus
    
    |-------------------------------------------------|
    |-------------------------------------------------|
    |-------------------------------------------------|
    |-------------------------------------------------|
    |-9-9/10-10/12-1210-109-9-9-97-7-7-7/9-9-9-97-|
    |-7-7/8--8 /10-108--8 7-7-7-75-5-5-5/7-7-7-75-|
    
    Interlude
    
    |------------------------|
    |------------------------|
    |------------------------|
    |------------------------|
    |-2-2--2-2--2-2--2-3-5-3-|
    |-0-0--0-0--0-0--0-1-3-1-|
    
    Bridge
    
    |------------------------|
    |------------------------|
    |------------------------|
    |------------------------|
    |-2-2-10-10-9-9-9-10-9-2-|
    |-0-0-8--8--7-7-7-8--7-0-|
     

    Тональность:

    Это должно быть в ТОП-листе! - Топ-лист композиций



    Назад
    Рекомендуем посмотреть другие песни исполнителя «Coal Chamber»:

    • Комменты Fb ()
    • Комменты ВК



    Добавить в Избранное Браузера
    Сохранить здесь Очистить


    x

    0


    +
    -

    +
    -

    -

    Авторизация





    Зарегистрироваться

    M

    Дата и время

    • 23:35:33
       

    Социальные ссылки


    Наши приложения

    • Muzbank App Play Market
    • Muzbank Amazon App