MUZBANK



A MOST COMPLETE BANK OF MUSIC INFORMATION

МУЗЫКАЛЬНО-ИНФОРМАЦИОННЫЙ БАНК







    CCoal Chamber • Bradley (аккорды и текст - chords & lyrics)


    206

    Print

    Видео «Bradley (Coal Chamber)»

    Видео клипы к песне подбираются автоматически сайтом youtube. Возможны некоторые несоответствия клипов песне.

    ↑ Спрятать рекламу ↑






     
    
    
    GUITAR TABLATURE ONLINE
    
              URL: www.angelfire.com/bc/tablature
    	EMAIL: tablature@canada.com
    
     ----------------------------------------------------------------------------------------------
    
    	     SONG: Bradley
    	     BAND: Coal Chamber
    	    ALBUM: Coal Chamber
       TRANSCRIBED BY: Unknown
    	     DATE: Unknown
    
     ----------------------------------------------------------------------------------------------
    
    	TUNING: tune your guitar down 1.5 steps and then drop d (B,F#,B,E,G#,C#)
    
    
         MAIN RIFF:
                                                
       C#|---------------------------------------|
       G#|------------------------------------9--|
        E|------------------------------------x--|
        B|------------------------------------6--|
       F#|--3----6--5---6-5-6--5---6-5-----------|
        B|-----0------0----------0------0--0-----|
    
         CHORUS:
      
       C#|---------------|
       G#|---------------|
        E|---------------|
        B|--2-0-2-0-2-3--|
       F#|--2-0-2-0-2-3--|
        B|--2-0-2-0-2-3--|
    
         BRIDGE:
    
       C#|------------------------------|
       G#|------------------------------|
        E|------------------------------|
        B|--2-0-2-0-4-3--2-0-2-3-4-2p0--|
       F#|--2-0-2-0-4-3--2-0-2-3-4-2p0--|
        B|--2-0-2-0-4-3--2-0-2-3-4-2p0--|
    
         End on C# power chord
     

    Тональность:

    Это должно быть в ТОП-листе! - Топ-лист композиций



    Назад
    Рекомендуем посмотреть другие песни исполнителя «Coal Chamber»:

    • Комменты Fb ()
    • Комменты ВК



    Добавить в Избранное Браузера
    Сохранить здесь Очистить


    x

    0


    +
    -

    +
    -

    -

    Авторизация





    Зарегистрироваться

    M

    Дата и время

    • 13:41:31
       

    Социальные ссылки


    Наши приложения

    • Muzbank App Play Market
    • Muzbank Amazon App