MUZBANK



A MOST COMPLETE BANK OF MUSIC INFORMATION

МУЗЫКАЛЬНО-ИНФОРМАЦИОННЫЙ БАНК







    CCoal Chamber • Dreamtime (аккорды и текст - chords & lyrics)


    359

    Print

    Видео «Dreamtime (Coal Chamber)»

    Видео клипы к песне подбираются автоматически сайтом youtube. Возможны некоторые несоответствия клипов песне.

    ↑ Спрятать рекламу ↑





     
    
    
    Band: Coal Chamber
    Song: Dreamtime
    By Jonathan Bissonnette
    
    Tuning B E A D G B
    
    Intro
    
    |--0-----|
    |----3---|
    |------2-|
    |-0------|
    |--------|
    |--------|
    
    |--0-------0-----|
    |----3-------3---|
    |------2-------2-|
    |-0--------------|
    |----------------|
    |----------------|
    
    |-------------------------|
    |-------------------------|
    |-------------------------|
    |-------------------------|
    |-7-7-7-7--7-7-7-7--7-7-7-|
    |-6-6-6-6--0-0-0-0--0-0-0-|
    
    Verse
    
    |--0-----|
    |----3---|
    |------2-|
    |-0------|
    |--------|
    |--------|x4
    
    |--0-------0-----|
    |----3-------3---|
    |------2-------2-|
    |-0--------------|
    |----------------|
    |----------------|x4
    
    Chorus
    
    |-------------|
    |-------------|
    |-------------|
    |-------------|
    |-2-2-3-2-2-2-|
    |-0-0-1-0-0-0-|
    
    Bridge
    
    |-------|
    |-------|
    |-------|
    |-2---3-|
    |-------|
    |-------|
    
    |-------------|
    |-------------|
    |-------------|
    |-------------|
    |-2-2-3-2-2-2-|
    |-0-0-1-0-0-0-|
    
    Outro
    
    |----------------------------------------------------|
    |----------------------------------------------------|
    |----------------------------------------------------|
    |----------------------------------------------------|
    |-7-7-7-7--7-7-7-7--7-7-7----7-7-7-7--7-7-7-7--7-7-7-|
    |-0-0-0-0--0-0-0-0--0-0-0----0-0-0-0--0-0-0-0--0-0-0-|
    
    |----------------------------------------------------|
    |----------------------------------------------------|
    |----------------------------------------------------|
    |-9-9-9-9--9-9-9-9--9-9-9----9-9-9-9--9-9-9-9--9-9-9-|
    |-8-8-8-8--8-8-8-8--8-8-8----8-8-8-8--8-8-8-8--8-8-8-|
    |----------------------------------------------------|
    
    |----------------------------------------------------|
    |----------------------------------------------------|
    |----------------------------------------------------|
    |----------------------------------------------------|
    |-7-7-7-7--7-7-7-7--7-7-7----7-7-7-7--7-7-7-7--7-7-7-|
    |-0-0-0-0--0-0-0-0--0-0-0----0-0-0-0--0-0-0-0--0-0-0-|
    
    |---------------------------------------|
    |---------------------------------------|
    |---------------------------------------|
    |---------------------------------------|
    |-4-4-4-4--4-4-4-4--4-4-4----3-3-3-3--2-|
    |-3-3-3-3--3-3-3-3--3-3-3----1-1-1-1--0-|
     

    Тональность:

    Это должно быть в ТОП-листе! - Топ-лист композиций



    Назад
    Рекомендуем посмотреть другие песни исполнителя «Coal Chamber»:

    • Комменты Fb ()
    • Комменты ВК



    Добавить в Избранное Браузера
    Сохранить здесь Очистить


    x

    0


    +
    -

    +
    -

    -

    Авторизация





    Зарегистрироваться

    M

    Дата и время

    • 02:05:11
       

    Социальные ссылки


    Наши приложения

    • Muzbank App Play Market
    • Muzbank Amazon App