MUZBANK



A Most Complete Bank Of Music Information

МУЗЫКАЛЬНО-ИНФОРМАЦИОННЫЙ БАНК

Поиск по сайту







    CCoal Chamber • Loco (аккорды и текст - chords & lyrics)


    315

    Print

    Видео «Loco (Coal Chamber)»

    Видео клипы к песне подбираются автоматически сайтом youtube. Возможны некоторые несоответствия клипов песне.

    ↑ Спрятать рекламу ↑



    Download



     
    
    
    GUITAR TABLATURE ONLINE
    
              URL: www.angelfire.com/bc/tablature
    	EMAIL: tablature@canada.com
    
     ----------------------------------------------------------------------------------------------
    
    	     SONG: Loco
    	     BAND: Coal Chamber
    	    ALBUM: Coal Chamber
       TRANSCRIBED BY: David Stagg (davey713@aol.com)
    	     DATE: Unknown
    
     ----------------------------------------------------------------------------------------------
    
    	TUNING: tune your guitar down 1.5 steps and then drop d (B,F#,B,E,G#,C#)
    
         INTRO:
    
       C#|-------------------------------------------------------|
       G#|--3-3-3-3-3-3-3-3-3-3-3-3---3---3---3-3---3---3-3-3----|
        E|--------------------------6---6---6-----6---6---6---6--|
        B|-------------------------------------------------------|
       F#|-------------------------------------------------------|
        B|-------------------------------------------------------|
    
         FILL 1:
    
       C#|-----|
       G#|-----|
        E|-----|
        B|--0--|
       F#|--0--|
        B|--0--|
    
         PRE-VERSE:
    
       C#|-----------------------------------------|
       G#|-----------------------------------------|
        E|-----------------------------------------|
        B|--0-2-0-2-0-2-0-2-3-2-0-2-0-2-0-2-0-8-7--|
       F#|--0-2-0-2-0-2-0-2-3-2-0-2-0-2-0-2-0-8-7--|
        B|--0-2-0-2-0-2-0-2-3-2-0-2-0-2-0-2-0-8-7--|
    
         VERSE: palm muted
    
       C#|-----------------------------------------|
       G#|-----------------------------------------|
        E|-----------------------------------------|
        B|-----------------------------------------|
       F#|-----------------------------------------|
        B|--0-2-0-2-0-2-0-2-3-2-0-2-0-2-0-2-0-8-7--|
    
         CHORUS:
    
         Play this four times
    
       C#|-----------------|
       G#|-----------------|
        E|-----------------|
        B|--2--2----2-2-2--|
       F#|--2--2----2-2-2--|
        B|--2--2----2-2-2--|
    
         Then play this four times
    
       C#|-----------------|
       G#|-----------------|
        E|-----------------|
        B|--1--1----1-1-1--|
       F#|--1--1----1-1-1--|
        B|--1--1----1-1-1--|
    
         INTERLUDE:
    
       C#|-----------------|
       G#|-----------------|
        E|-----------------|
        B|--1-2-1-0-1-2-3--|
       F#|--1-2-1-0-1-2-3--|
        B|--1-2-1-0-1-2-3--|
     

    Тональность:

    Нет текста!



    Назад
    Рекомендуем посмотреть другие песни исполнителя «Coal Chamber»:

    • Комментарии Facebook ()
    • Комментарии ВКонтакте



    Добавить в Избранное Браузера
    Сохранить здесь Очистить


    x

    0


    +
    -

    +
    -

    -

    Авторизация





    Зарегистрироваться

    M

    Дата и время

    • 05:29:21
       

    Социальные ссылки


    Наши приложения

    • Muzbank App Play Market
    • Muzbank Amazon App