MUZBANK



A Most Complete Bank Of Music Information

МУЗЫКАЛЬНО-ИНФОРМАЦИОННЫЙ БАНК

Поиск по сайту







    CCoal Chamber • Wishes (аккорды и текст - chords & lyrics)


    236

    Print

    Видео «Wishes (Coal Chamber)»

    Видео клипы к песне подбираются автоматически сайтом youtube. Возможны некоторые несоответствия клипов песне.

    ↑ Спрятать рекламу ↑



    Download


     
    
    
    SONG: Wishes
                 BAND: Coal Chamber
                ALBUM: Heavy Metal 2000
       TRANSCRIBED BY: Joe Husak (joe@13ways.net)
                 DATE: 1-15-01
    
    
            TUNING: (LOWEST TO HIGHEST) A#-F-A#-D#-G-C
    C |---------------
    G |---------------
    D#|---------------
    A#|---------------
    F |--(1-1--1-1)--2
    A#|--(1-1--1-1)--2
    
    
    C |----------------------------------------------------------
    G |----------------------------------------------------------
    D#|----------------------------------------------------------
    A#|--(0-0--0-0)--1-(0-0--0-0)--1-(0-0--0-0)--1-(0-0-0--0-0-0)
    F |--(0-0--0-0)--1-(0-0--0-0)--1-(0-0--0-0)--1-(0-0-0--0-0-0)
    A#|--(0-0--0-0)--1-(0-0--0-0)--1-(0-0--0-0)--1-(0-0-0--0-0-0)
    
    
    C |------------
    G |------------
    D#|--8--9--10--
    A#|--8--9--10--
    F |--6--7--8---
    A#|--6--7--8---
    
    C |--
    G |--
    D#|--
    A#|--5-5--5-5--5-5-2
    F |--5-5--5-5--5-5-2
    A#|--5-5--5-5--5-5-2
     

    Тональность:

    Нет текста!



    Назад
    Рекомендуем посмотреть другие песни исполнителя «Coal Chamber»:

    • Комментарии Facebook ()
    • Комментарии ВКонтакте



    Добавить в Избранное Браузера
    Сохранить здесь Очистить


    x

    0


    +
    -

    +
    -

    -

    Авторизация





    Зарегистрироваться

    M

    Дата и время

    • 01:00:53
       

    Социальные ссылки


    Наши приложения

    • Muzbank App Play Market
    • Muzbank Amazon App