MUZBANK



A Most Complete Bank Of Music Information

МУЗЫКАЛЬНО-ИНФОРМАЦИОННЫЙ БАНК

Поиск по сайту







    CCold • Anti-love Song (аккорды и текст - chords & lyrics)


    250

    Print

    Видео «Anti-love Song (Cold)»

    Видео клипы к песне подбираются автоматически сайтом youtube. Возможны некоторые несоответствия клипов песне.

    ↑ Спрятать рекламу ↑



    Download


     
    
    
    Anti-Love Song
    
    Straight C Tuning, tune down two whole steps
    
    1=C   4=Bb
    2=G   5=F
    3=Eb  6=C
    
    | -------
    | -------
    | ---9---
    | -------
    | ---7---
    | ---0---
      Intro  *use wah
    
    | ---------------------------------
    | ---------------------------------
    | ---------------------------------
    | ---------------------------------
    | ---------------------------------
    | -0----0h3~~---3/2----2/6~~---
      Verse  * use wah
    
    | ---------------------------------------------------------------
    | ---------------------------------------------------------------
    | -9--9-9-9--9/12--12-12-12-11--11-11-11-11/15--15-15---
    | ---------------------------------------------------------------
    | -7--7-7-7--7/10--10-10-10--9---9--9--9--9/13--13-13---
    | ---------------------------------------------------------------
      Chorus
    
    | ---------------------------------------------------------------
    | ---------------------------------------------------------------
    | -9--9-9-9--9/12--12-12-12-11--11-11-11-11/15-15--15---
    | -9--9-9-9--9/12--12-12-12-11--11-11-11-11/15-15--15---
    | -7--7-7-7--7/10--10-10-10--9---9--9--9--9/13-13--13---
    | ---------------------------------------------------------------
      Bridge  *acoustic
    
    
    ====
    
    Cold
    Anti-Love Song
    From: 13 Ways to Bleed On Stage
    
    
    Tuning: CGCFAD
    
    Intro
    
    C-6-6-6-0-
    G-6-6-6-0-
    C-6-6-6-0-
    
    Chorus
    
    C-0-0-0-0--3-3-3-3--2-2-2-2--6-6-6-6-
    G-0-0-0-0--3-3-3-3--2-2-2-2--6-6-6-6-
    C-0-0-0-0--3-3-3-3--2-2-2-2--6-6-6-6-
    
    Verse
    
    C-6-6--0-0--0-0--3-3--3-3-2-2--2-2-6-6-
    G-6-6--0-0--0-0--3-3--3-3-2-2--2-2-6-6-
    C-6-6--0-0--0-0--3-3--3-3-2-2--2-2-6-6-
    
    ====
     

    Тональность:

    Нет текста!



    Назад
    Рекомендуем посмотреть другие песни исполнителя «Cold»:

    • Комментарии Facebook ()
    • Комментарии ВКонтакте



    Добавить в Избранное Браузера
    Сохранить здесь Очистить


    x

    0


    +
    -

    +
    -

    -

    Авторизация





    Зарегистрироваться

    M

    Дата и время

    • 01:22:22
       

    Социальные ссылки


    Наши приложения

    • Muzbank App Play Market
    • Muzbank Amazon App