MUZBANK



A Most Complete Bank Of Music Information

МУЗЫКАЛЬНО-ИНФОРМАЦИОННЫЙ БАНК

Поиск по сайту







    CCold • Bizarre (аккорды и текст - chords & lyrics)


    242

    Print

    Видео «Bizarre (Cold)»

    Видео клипы к песне подбираются автоматически сайтом youtube. Возможны некоторые несоответствия клипов песне.

    ↑ Спрятать рекламу ↑



    Download


     
    
    
    Bizarre
    Straight C Tuning, tune down two whole steps
    
    1=C   4=Bb
    2=G   5=F
    3=Eb  6=C
    
    | ----7-7------8-8-------7-7-----7-7------6----
    | -5--------5--------5---------5--------5------
    | -----------------------------------------------
    | -----------------------------------------------
    | -----------------------------------------------
    | -----------------------------------------------
      Intro/Verse  gtr. 1 (Kelly)
    
    | -----------------
    | -----------------
    | -----------------
    | -2-------3------
    | -2-------3------
    | -0-------1------
      Verse gtr. 2 (Terry)
    
    | ----------------------------------------------------------
    | ----------------------------------------------------------
    | ----------------------------------------------------------
    | ----------------------------------------------------------
    | -7-7-7-7--3-3-3-3--5--5-5-5-10-10-10--9-9-9-9----
    | -5-5-5-5--1-1-1-1--3--3-3-3--8--8--8--7-7-7-7----
      Chorus
    
    | -------------------------------
    | -------------------------------
    | -12--12-12-12-12-12-12---
    | -12--12-12-12-12-12-12---
    | -10--10-10-10-10-10-10---
    | -------------------------------
      Bridge gtr. 1 (Terry)
    
    | -------------------------------------------------------------------------------
    | --17-17-17/15-15-15-15/14-14-14-14/13-13-13-13h12--12~~~-----------------------
    | -------------------------------------------------------------------------------
    | -------------------------------------------------------------------------------
    | -------------------------------------------------------------------------------
    | -------------------------------------------------------------------------------
      Bridge gtr. 2 (Kelly)
     

    Тональность:

    Нет текста!



    Назад
    Рекомендуем посмотреть другие песни исполнителя «Cold»:

    • Комментарии Facebook ()
    • Комментарии ВКонтакте



    Добавить в Избранное Браузера
    Сохранить здесь Очистить


    x

    0


    +
    -

    +
    -

    -

    Авторизация





    Зарегистрироваться

    M

    Дата и время

    • 07:12:50
       

    Социальные ссылки


    Наши приложения

    • Muzbank App Play Market
    • Muzbank Amazon App