MUZBANK



A Most Complete Bank Of Music Information

МУЗЫКАЛЬНО-ИНФОРМАЦИОННЫЙ БАНК

Поиск по сайту







    CCold Chisel • Choir Girl (аккорды и текст - chords & lyrics)


    183

    Print

    Видео «Choir Girl (Cold Chisel)»

    Видео клипы к песне подбираются автоматически сайтом youtube. Возможны некоторые несоответствия клипов песне.

    ↑ Спрятать рекламу ↑



    Download


     BASSLINE 
    
    
                  Verse
      Q=97
     4/4
      Gtr I
      H.      Q    Q.   E q  q    Q  E E H      Q.   E H      Q.   E H
    |------------|--------5--4--|-2-----------|-------------|-------------|
    |------------|------5-------|-------------|-------------|-------------|
    |------------|-3------------|------0-0----|-5----5-5----|-3----3-3----|
    |---------3--|--------------|-------------|-------------|-------------|
    
    
      Q.   E H      Q.   E H      Q.   E H      Q.   E Q  Q    H    H
    |-------------|-------------|-------------|--------------|-----------|
    |-------------|-------------|-------------|--------------|-----------|
    |-------------|-------------|-5----5-5----|-3----3-3--4--|-5----0----|
    |-3----3-3----|-5----5-5----|-------------|--------------|-----------|
    
    
      Q.   E H      H    H      Q.   E H      Q.   E Q.    E    Q.   E Q.    E
    |-------------|-----------|-------------|-----------------|-----------------|
    |-------------|-----------|------3-5----|-2---------------|-----------------|
    |-------------|-5----0----|-5-----------|-----------------|-0----0-0----(0)-|
    |-3----3-3----|-----------|-------------|------0-0----(0)-|-----------------|
    
    
                                   Verse 2
      Q.   E q  q    Q.   E q  Q    Q.   E q  q    Q.   E H      Q.   E H
    |--------------|-----------5--|--------------|-------------|-------------|
    |--------------|--------------|--------------|-------------|-------------|
    |--------5-----|-3----3-3-----|-3------3--2--|-0----0-0----|-5----5-5----|
    |-3----3----3--|--------------|------3-------|-------------|-------------|
    
    
      Q.   E Q  E E   Q.   E Q   Q     Q.   E H      Q.   E H      Q.   E q  Q
    |---------------|----------------|-------------|-------------|--------------|
    |---------------|-----------(5)--|-7-----------|-------------|--------------|
    |-3----3-3----3-|----------------|-------------|-5----5-5----|-3----3-3--4--|
    |-----------3---|-3----3-3-------|------5-5----|-------------|--------------|
    
    
      H    a H      Q.   E H      H    a H      Q.   E H      Q.   E Q  E e
    |-------------|-------------|-------------|-------------|-------------4--|
    |------5h7----|-------------|------5h7----|------3-5----|-2---------2----|
    |-5-----------|-------------|-5-----------|-5-----------|------2-2-------|
    |-------------|-3----3-3----|-------------|-------------|----------------|
    
    
      Q.   E Q  Q    Q.   E q  q    Q.   E q  q    Q.   E Q   Q     Q.   E Q   q
    |--------2-----|--------------|--------------|-----------(7)--|---------------|
    |--------------|-5----5-5-----|--------------|----------------|---------------|
    |-0------------|--------------|-3----3-3--4--|-5----5-5-------|-5----5-5--0--|
    |--------------|-----------3--|--------------|----------------|---------------|
    
    
      Q.   E Q.   E   Q.   E E E E E   Q.   E Q.   E   e e e e E e e e   Q.   E Q.   E
    |---------------|----------------|---------------|-------7---7-----|---------------|
    |---------------|----------3-----|---------------|-----7-------7---|---------------|
    |-0----0-0----0-|-0----0-0---0-3-|-5----5-5----0-|-5-8-----------8-|---------------|
    |---------------|----------------|---------------|-----------------|-3----3-3----3-|
    
    
                  Verse 3
      H    Q  Q    Q.   E q  q    Q  E E Q.   E   Q.   E Q  Q    Q.   E Q  e e
    |------------|--------5--4--|-2-------------|--------------|---------------|
    |------7--5--|------5-------|---------------|--------------|---------------|
    |------------|-3------------|------0-0------|-5----5-5-----|-3----3-3------|
    |-3----------|--------------|---------------|--------------|-----------0-1-|
    
    
      Q.   E q  q    Q.   E H      Q.   E Q  Q    Q.   E q  q    H    H
    |--------------|-------------|--------------|--------------|-----------|
    |-----------3--|-5-----------|--------------|--------------|-----------|
    |--------3-----|------0-0----|-5----5-5-----|-3----3-3--4--|-5----0----|
    |-3----3-------|-------------|--------------|--------------|-----------|
    
    
      Q.   E H      H    H      Q   E  E H      Q.   E Q.    E    Q.   E Q.    E
    |-------------|-----------|---------------|-------------(2)-|-----------------|
    |-------------|-----------|--------3-5----|-2---------------|-------------(5)-|
    |-------------|-5----0----|-5--(5)--------|-----------------|-0----0-0--------|
    |-3----3-3----|-----------|---------------|------0-0--------|-----------------|
    
    
      Q.   E q  q    Q.   E Q  E E   Q.   E H      Q.   E H      Q.   E Q  Q
    |--------------|---------------|-------------|-------------|--------------|
    |--------------|-----------3-5-|-------------|-7-----------|--------------|
    |-----------5--|-3----3-3------|-7------7----|------0-0----|-----------5--|
    |-3----3-3-----|---------------|------0------|-------------|-3----3-3-----|
    
    
      Q.   E Q  E E   Q.   E Q  e e   Q.    E   Q  Q    Q.   E E E Q    Q.   E Q   Q
    |---------------|---------------|----------/4--2--|------------5--|----------------|
    |---------------|-2------2----2-|-----------------|-5----5-7-7----|----------------|
    |-3----3-3--3s4-|------2----2---|-0----(0)--------|---------------|-3----3-3-------|
    |---------------|---------------|-----------------|---------------|-----------(0)--|
    
    
       Outro
                                                 1.               2.
        Q.   E H      Q.   E H      Q.   E H      Q.   E Q  Q      W
    ||--------------|-------------|-------------|---------------||------*|
    ||o-------------|-------------|-------------|--------------o||------*|
    ||o-------------|-------------|-5----5-5----|-3----3-3--3--o||-3----*|
    ||--3----3-3----|-5----5-5----|-------------|---------------||------*| 

    Тональность:

    Нет текста!



    Назад

    • Комментарии Facebook ()
    • Комментарии ВКонтакте



    Добавить в Избранное Браузера
    Сохранить здесь Очистить


    x

    0


    +
    -

    +
    -

    -

    Авторизация





    Зарегистрироваться

    M

    Дата и время

    • 22:27:08
       

    Социальные ссылки


    Наши приложения

    • Muzbank App Play Market
    • Muzbank Amazon App