MUZBANK



A Most Complete Bank Of Music Information

МУЗЫКАЛЬНО-ИНФОРМАЦИОННЫЙ БАНК








    CCold • Cure My Tragedy (аккорды и текст - chords & lyrics)


    416

    Print

    Видео «Cure My Tragedy (Cold)»

    Видео клипы к песне подбираются автоматически сайтом youtube. Возможны некоторые несоответствия клипов песне.

    ↑ Спрятать рекламу ↑






     
    
    
    Cold - Cure my Tragedy
    
    Tabbed by: Dave
    
    This is the third song on the album, and its really easy to learn, cuz its 
    all pretty straight forward, and becuz its a slow song, timing is really 
    easy. This is it, and im sure of all of it. Enjoy :)
    
    0:07    Verse
    G|------------------|
    D|------------------|
    A|----0h2-----------|5x
    E|1---------1---0~~-|
    Note: Listen very carefully  to the song,  and  youll hear  it only does 
    this,  the extra beats, are just the bass on the drums.
    
    0:43                           Chorus
    G|---------------|---------------|---------------|---------------|
    D|---------------|---------------|---------------|---------------|
    A|---------------|---------------|---------------|---------------|2x
    E|4-4-4-4-4-4-4-4|3-3-3-3-3-3-3-3|0-0-0-0-0-0-0-0|2-2-2-2-2-2-2-2|
    
    1:12 Verse 5x
    
    1:48                          Chorus 2
    G|---------------|---------------|---------------|---------------|
    D|---------------|---------------|---------------|---------------|
    A|---------------|---------------|---------------|---------------|
    E|4-4-4-4-4-4-4-4|3-3-3-3-3-3-3-3|0-0-0-0-0-0-0-0|2-2-2-2-2-2-2-2|
    
    G|---------------|---------------|
    D|---------------|---------------|
    A|---------------|---------------|1x
    E|0-0-0-0-0-0-0-0|2-2-2-2-2-2-2-2|
    
    2:10                           Bridge
    G|---------------|---------------|---------------|--------------|
    D|---------------|---------------|---------------|--------------|
    A|---------------|---------------|---------------|--------------|2x
    E|0-0-0-0-0-0-0-0|3-3-3-3-3-3-3-3|4-4-4-4-4-4-4-4|6-6-6-6-/5-5-5|
    
    2:39 Chorus 3x
    
    3:15          Chorus 3
    G|---------------|---------------|
    D|---------------|---------------|
    A|---------------|---------------|2x
    E|4-4-4-4-4-4-4-4|3-3-3-3-3-3-3-3|
    
    End On
    G|--------------|
    D|--------------|
    A|--------------|
    E|4~~~~~~~~~~~~~|
     

    Тональность:

    Нашли ошибку?



    Назад
    Рекомендуем посмотреть другие песни исполнителя «Cold»:

    • Комменты Fb ()
    • Комменты ВК



    Добавить в Избранное Браузера
    Сохранить здесь Очистить


    x

    0


    +
    -

    +
    -

    -

    Авторизация





    Зарегистрироваться

    M

    Дата и время

    • 18:01:34
       

    Социальные ссылки


    Наши приложения

    • Muzbank App Play Market
    • Muzbank Amazon App