MUZBANK



A Most Complete Bank Of Music Information

МУЗЫКАЛЬНО-ИНФОРМАЦИОННЫЙ БАНК

Поиск по сайту







    CCold • Cure My Tragedy (аккорды и текст - chords & lyrics)


    167

    Print

    Видео «Cure My Tragedy (Cold)»

    Видео клипы к песне подбираются автоматически сайтом youtube. Возможны некоторые несоответствия клипов песне.

    ↑ Спрятать рекламу ↑



    Download



     
    
    
    Artist - Cold
    Song - Cure My Tragedy
    Album - Year of the Spider
    Tuning - (low to high) C F Bb Eb G C
    
    Intro/Pre Chorus (Guitar 1)
    --------------------------10---10-------------------------------10b---|
    --------------17b--10-7-8----8----8-7-8--------------17b-10-7-8-------|
    --------14-16---------------------------------14-16-------------------|
    --14-16---------------------------------14-16-------------------------|
    ----------------------------------------------------------------------|
    ----------------------------------------------------------------------|
    
    Verse (Guitar 1)
    ----------------------------|--------------|
    ----------------------------|--------------|
    -16--14-15-16/1716p15--16--|--14-----16--|
    -14-------------------------|-----14-------|
    ----------------------------|--------------|
    ----------------------------|--------------|
    
       (guitar 2)
    ----------------------|
    ----------------------|
    --9h11--7h9--9h11--7--|
    ----------------------|
    ----------------------|
    ----------------------|
    
    Chorus
    --------------|
    --------------|
    --5--4--------|
    --5--4--2--5--|
    --3--2--2--5--|
    --------0--3--|
    
    
    Solo, Gtr 1 (Guitar 1)
    --/12-15-14-------15-14------------------------------------------------19-19/20--|
    ------------15-15-------12--12-/17-17-17-17-17-/17-17-17-17-17-17-17------------|
    ----------------------------------------------------------------------------------|
    ----------------------------------------------------------------------------------|
    ----------------------------------------------------------------------------------|
    ----------------------------------------------------------------------------------|
    
    -----------------------------------------------------------------------------17-17-17-17b-17b-17b--15-----------|
    ------------------------------------17--------------------------------17-17--------------------------12-15-12--|
    --9-9/11-11-11-11/12-12/14-14-14-14-----9-9h11-11-11/12-12/14-14-14-14------------------------------------------|
    ----------------------------------------------------------------------------------------------------------------|
    ----------------------------------------------------------------------------------------------------------------|
    ----------------------------------------------------------------------------------------------------------------|
    
    --15-14----------15-14----------15-14----------15-14----15-14----15-14----------15-14-------------------------------------------------------------------|
    --------12-12-12-------15-15-15-------12-12-12-------12-------12-------15-15-15-------12-12/17-17-17-17-17-17-17-17-17-12/17-17-17-17-17-17-17-17-17--|
    --------------------------------------------------------------------------------------------------------------------------------------------------------|
    --------------------------------------------------------------------------------------------------------------------------------------------------------|
    --------------------------------------------------------------------------------------------------------------------------------------------------------|
    --------------------------------------------------------------------------------------------------------------------------------------------------------|
    
    --20-19-------17-19-17-------19-19-17-------19-20-19------------|
    --------17-17----------17-17----------17-17----------17-17-17--|
    ----------------------------------------------------------------|
    ----------------------------------------------------------------|
    ----------------------------------------------------------------|
    ----------------------------------------------------------------|
    
    Solo, Gtr 2 (Guitar 2)
    ----------------|
    ----------------|
    ----------5--4--|
    -2--5--7--5--4--|
    -2--5--7--3--2--|
    -0--3--5--------|
    
    Outro (Guitar 1)
    -------------------|
    --------------17b--|
    --------14-16------|
    --14-16------------|
    -------------------|
    -------------------|
     

    Тональность:

    Нет текста!



    Назад
    Рекомендуем посмотреть другие песни исполнителя «Cold»:

    • Комментарии Facebook ()
    • Комментарии ВКонтакте



    Добавить в Избранное Браузера
    Сохранить здесь Очистить


    x

    0


    +
    -

    +
    -

    -

    Авторизация





    Зарегистрироваться

    M

    Дата и время

    • 17:21:37
       

    Социальные ссылки


    Наши приложения

    • Muzbank App Play Market
    • Muzbank Amazon App