MUZBANK



A Most Complete Bank Of Music Information

МУЗЫКАЛЬНО-ИНФОРМАЦИОННЫЙ БАНК

Поиск по сайту







    CCold • Dont Belong (аккорды и текст - chords & lyrics)


    261

    Print

    Видео «Dont Belong (Cold)»

    Видео клипы к песне подбираются автоматически сайтом youtube. Возможны некоторые несоответствия клипов песне.

    ↑ Спрятать рекламу ↑



    Download



     
    
    
    Song: Dont Belong
    Artist: Cold
    
    Tuning: (low to high: C F Bb Eb G C)
    
    
    
    Intro: guitar 1:
    |--19-19-19--21-20-19--|
    |----------------------|
    |----------------------|
    |----------------------|
    |----------------------|
    |----------------------|
    
    Verse: guitar 1:
    |--17-17-17-17-17-17--15-15-15--19-19--21-20-19--|
    |------------------------------------------------|
    |------------------------------------------------|
    |------------------------------------------------|
    |------------------------------------------------|
    |------------------------------------------------|
    
    guitar 2:
    |--------9-12--------9-12---------9-12/17--12--|
    |----------------------------------------------|
    |--9-12--------9-12---------9-12---------------|
    |----------------------------------------------|
    |----------------------------------------------|
    |----------------------------------------------|
    
    Chorus:
    |-------------------------------------------------------------
    |-------------------------------------------------------------
    |-------------------------------------------------------------
    |--7--7-7--7-7-7-7--7--7-7--7-7-7-7-7-7-7---------------------
    |--5--5-5--5-5-5-5--5--5-5--5-5-5-5-5-5-5--8--8-8--8-8-8------
    |------------------------------------------6--6-6--6-6-6------
    
    |------------------|
    |------------------|
    |------------------|
    |------------------|
    |--3--3-3--3-3-3---|
    |--1--1-1--1-1-1---|
    
    guitar 2: before 2nd verse:
    |------------------------------------------|
    |------------------------------------------|
    |---------10-12---------10-12--141210----|
    |--10-12---------10-12---------------------|
    |------------------------------------------|
    |------------------------------------------|
    
    Verse: guitar 1:
    |--17-17-17-17-17-17--15-15-15--19-19--21-20-19--|
    |------------------------------------------------|
    |------------------------------------------------|
    |------------------------------------------------|
    |------------------------------------------------|
    |------------------------------------------------|
    
    guitar 2:
    |--------9-12--------9-12---------9-12/17--12--|
    |----------------------------------------------|
    |--9-12--------9-12---------9-12---------------|
    |----------------------------------------------|
    |----------------------------------------------|
    |----------------------------------------------|
    
    Chorus:
    |-------------------------------------------------------------
    |-------------------------------------------------------------
    |-------------------------------------------------------------
    |--7--7-7--7-7-7-7--7--7-7--7-7-7-7-7-7-7---------------------
    |--5--5-5--5-5-5-5--5--5-5--5-5-5-5-5-5-5--8--8-8--8-8-8------
    |------------------------------------------6--6-6--6-6-6------
    
    |------------------|
    |------------------|
    |------------------|
    |------------------|
    |--3--3-3--3-3-3---|
    |--1--1-1--1-1-1---|
    
    Breakdown-type thing: 2:13
    guitar 1:
    |-----------13---------------|
    |--10-8-10------10-8-10------|
    |-----------------------10---|
    |----------------------------|
    |----------------------------|
    |----------------------------|
    
    guitar 2: (play the chorus part palm-muted)
    |-------------------------------------------------------------
    |-------------------------------------------------------------
    |-------------------------------------------------------------
    |--7--7-7--7-7-7-7--7--7-7--7-7-7-7-7-7-7---------------------
    |--5--5-5--5-5-5-5--5--5-5--5-5-5-5-5-5-5--8--8-8--8-8-8------
    |------------------------------------------6--6-6--6-6-6------
    
    |------------------|
    |------------------|
    |------------------|
    |------------------|
    |--3--3-3--3-3-3---|
    |--1--1-1--1-1-1---|
    
    Chorus again:
    |-------------------------------------------------------------
    |-------------------------------------------------------------
    |-------------------------------------------------------------
    |--7--7-7--7-7-7-7--7--7-7--7-7-7-7-7-7-7---------------------
    |--5--5-5--5-5-5-5--5--5-5--5-5-5-5-5-5-5--8--8-8--8-8-8------
    |------------------------------------------6--6-6--6-6-6------
    
    |------------------|
    |------------------|
    |------------------|
    |------------------|
    |--3--3-3--3-3-3---|
    |--1--1-1--1-1-1---|
    
    Ending:
    |-----------13---------------|
    |--10-8-10------10-8-10------|
    |-----------------------10---|
    |----------------------------|
    |----------------------------|
    |----------------------------|
     

    Тональность:

    Нет текста!



    Назад
    Рекомендуем посмотреть другие песни исполнителя «Cold»:

    • Комментарии Facebook ()
    • Комментарии ВКонтакте



    Добавить в Избранное Браузера
    Сохранить здесь Очистить


    x

    0


    +
    -

    +
    -

    -

    Авторизация





    Зарегистрироваться

    M

    Дата и время

    • 05:25:27
       

    Социальные ссылки


    Наши приложения

    • Muzbank App Play Market
    • Muzbank Amazon App