MUZBANK



A Most Complete Bank Of Music Information

МУЗЫКАЛЬНО-ИНФОРМАЦИОННЫЙ БАНК

Поиск по сайту







    CCold • Give (аккорды и текст - chords & lyrics)


    147

    Print

    Видео «Give (Cold)»

    Видео клипы к песне подбираются автоматически сайтом youtube. Возможны некоторые несоответствия клипов песне.

    ↑ Спрятать рекламу ↑



    Download



     
    
    
    Give
    Cold
    tuning - D A D G B E 
    By Fabricio Dias Pereira / Brazil
    
    Intro
    
    Gtr 1. (0:00 s)
    |----------------------------------------------------|
    |----------------------------------------------------|
    |----------------------------------------------------|
    |--10-10-10-10-13-13-13-13-13-13-13-13-11-11-11------|
    |--10-10-10-10-11-11-11-11-13-13-13-13-11-11-11------|
    |--10-10-10-10-------------13-13-13-13-11-11-11------| -----
                                                               |----- 2 X
    |----------------------------------------------------| -----
    |----------------------------------------------------|
    |----------------------------------------------------|
    |--10-10-10-10-13-13-13-13-13-13-13-13-X-X-11-X-X-11-|
    |--10-10-10-10-11-11-11-11-13-13-13-13-X-X-11-X-X-11-|
    |--10-10-10-10-------------13-13-13-13-X-X-11-X-X-11-|
    
    
    |-----|
    |-----|
    |-----|
    |-10--|
    |-10--|
    |-10--|
    
    Gtr 2. (00:08 s)
    |---------------------------------------------------|
    |---------------------------------------------------|
    |----------------13---------------------------------|
    |------------------------------13------------11-----|
    |----15---------------------------------------------|
    |---------------------------------------------------| 2X with Delay
    
    Verse 1
    Gtr1.                                  (00:29 s) 
    |-----------------------------------|--------------------------17(nh)--|
    |-----------------------------------|----------------------------------|
    |-----------------------------------|----------------------------------|
    |-----------------------------------|---X-X----------------------------|
    |-----------------------------------|---X-X----------------------------|
    |-----------------------------------|---X-X----------------------------|
    
    Gtr1 + Gtr2 (00:34 s)
    |----------------------------------------------------|
    |----------------------------------------------------|
    |----------------------------------------------------|
    |--10-10-10-10-13-13-13-13-13-13-13-13-11-11-11------|
    |--10-10-10-10-11-11-11-11-13-13-13-13-11-11-11------|
    |--10-10-10-10-------------13-13-13-13-11-11-11------| ---
                                                             |--- 2X
    |----------------------------------------------------| ---
    |----------------------------------------------------|
    |----------------------------------------------------|
    |--10-10-10-10-13-13-13-13-13-13-13-13-X-X-11-X-X-11-|
    |--10-10-10-10-11-11-11-11-13-13-13-13-X-X-11-X-X-11-|
    |--10-10-10-10-------------13-13-13-13-X-X-11-X-X-11-|
    
    
    Chorus 1
    Gtr 1. (00:50 s)
    |------------------------------------------------------------------------|
    |------------------------------------------------------------------------|
    |-10-10-10-10-10-10-10-10-10-10-8-8-8-8-8-8-8-8-8-8-6-6-6-6-6-6-6-6-6-6--|
    |-10-10-10-10-10-10-10-10-10-10-8-8-8-8-8-8-8-8-8-8-6-6-6-6-6-6-6-6-6-6--|
    |-8--8--8--8--8--8--8--8--8--8--6-6-6-6-6-6-6-6-6-6-4-4-4-4-4-4-4-4-4-4--|
    |------------------------------------------------------------------------|
    
    |---------------------|
    |---------------------|
    |-8-8-8-8-8-8-8-8-8-8-|
    |-8-8-8-8-8-8-8-8-8-8-|
    |-6-6-6-6-6-6-6-6-6-6-| ----- 2X
    |---------------------|
    
    Gtr 2.
    |------------------------------------------------------------------------|
    |------------------------------------------------------------------------|
    |------10----------------------------8--------------------6--------------|
    |---10-----------------------------8--------------------6----------------|
    |-8------------------------------6--------------------4------------------|
    |------------------------------------------------------------------------|
    
    |---------------------|
    |---------------------|
    |-----8---------------|
    |---8-----------------|
    |-6-------------------|
    |---------------------| --- 2X with Delay
    
    Interlude
    
    Gtr 1. (01:07 s)
    |----------------------------------------------------|
    |----------------------------------------------------|
    |----------------------------------------------------|
    |--10-10-10-10-13-13-13-13-13-13-13-13-11-11-11------|
    |--10-10-10-10-11-11-11-11-13-13-13-13-11-11-11------|
    |--10-10-10-10-------------13-13-13-13-11-11-11------| 
                                                               
    |----------------------------------------------------| 
    |----------------------------------------------------|
    |----------------------------------------------------|
    |--10-10-10-10-13-13-13-13-13-13-13-13-X-X-11-X-X-11-|
    |--10-10-10-10-11-11-11-11-13-13-13-13-X-X-11-X-X-11-|
    |--10-10-10-10-------------13-13-13-13-X-X-11-X-X-11-|
    
    |-----|
    |-----|
    |-----|
    |-10--|
    |-10--|
    |-10--|
    
    Verse 2
    
    Gtr 2.                                (01:24 s)
    |------------------------------------|---------------------------------|
    |------------------------------------|---------------------------------|
    |------------------------------------|-----------13--------------------|
    |------------------------------------|---------------------13-----11---|
    |------------------------------------|-15------------------------------| 
    |------------------------------------|---------------------------------|--6 X with Delay
    
    
    Gtr 1                                 (01:28 s)
    |------------------------------------|--------------------------17(nh)-|
    |------------------------------------|---------------------------------|
    |------------------------------------|---------------------------------|
    |------------------------------------|---------------------------------|
    |------------------------------------|---------------------------------|
    |------------------------------------|---------------------------------|
    
    Gtr1 (01:32 s)
    |----------------------------------------------------|
    |----------------------------------------------------|
    |----------------------------------------------------|
    |--10-10-10-10-13-13-13-13-13-13-13-13-11-11-11------|
    |--10-10-10-10-11-11-11-11-13-13-13-13-11-11-11------|
    |--10-10-10-10-------------13-13-13-13-11-11-11------| ---
                                                             |--- 2X
    |----------------------------------------------------| ---
    |----------------------------------------------------|
    |----------------------------------------------------|
    |--10-10-10-10-13-13-13-13-13-13-13-13-X-X-11-X-X-11-|
    |--10-10-10-10-11-11-11-11-13-13-13-13-X-X-11-X-X-11-|
    |--10-10-10-10-------------13-13-13-13-X-X-11-X-X-11-|
    
    Chorus 2
    
    Gtr 1. (01:49 s)
    |------------------------------------------------------------------------|
    |------------------------------------------------------------------------|
    |-10-10-10-10-10-10-10-10-10-10-8-8-8-8-8-8-8-8-8-8-6-6-6-6-6-6-6-6-6-6--|
    |-10-10-10-10-10-10-10-10-10-10-8-8-8-8-8-8-8-8-8-8-6-6-6-6-6-6-6-6-6-6--|
    |-8--8--8--8--8--8--8--8--8--8--6-6-6-6-6-6-6-6-6-6-4-4-4-4-4-4-4-4-4-4--|
    |------------------------------------------------------------------------|
    
    |---------------------|
    |---------------------|
    |-8-8-8-8-8-8-8-8-8-8-|
    |-8-8-8-8-8-8-8-8-8-8-|
    |-6-6-6-6-6-6-6-6-6-6-| ----- 4X
    |---------------------|
    
    Gtr 2.
    |------------------------------------------------------------------------|
    |------------------------------------------------------------------------|
    |------10----------------------------8--------------------6--------------|
    |---10-----------------------------8--------------------6----------------|
    |-8------------------------------6--------------------4------------------|
    |------------------------------------------------------------------------|
    
    |---------------------|
    |---------------------|
    |-----8---------------|
    |---8-----------------|
    |-6-------------------|
    |---------------------| --- 4X with Delay
    
    
    Bridge
    
    Gtr 1. (02:23 s)
    |-----------------|
    |-----------------|
    |-----------------|
    |--10-10-10-10----|
    |--8--8--8--8-----|
    |-----------------| --- 8 X
    
    |-----------------|
    |-----------------|
    |--XXX------------|
    |--XXX------------|
    |--XXX------------|
    |--XXX------------|
    
    Gtr 2. (02:24 s) 
    |-----------------|
    |-----------------|
    |------------10---|
    |-----------------|
    |-----------------|
    |-----------------| -- 4 X with Delay
    
    Gtr 2. (02:31 s)
    |---------------------------------------------------|
    |---------------------------------------------------|
    |----------------13---------------------------------|
    |------------------------------13------------11-----|
    |----15---------------------------------------------|
    |---------------------------------------------------| 2X with Delay 
    
    |----|
    |----|
    |-8--|
    |----|
    |----|
    |----| 1 X with Delay
    
    Gtr 1. (02:39 s)
    |-------------------------------------------|
    |-------------------------------------------|
    |-------------------------------------------|
    |--10----------13----------13----------11---|
    |--10----------11----------13----------11---|
    |--10----------------------13----------11---| -- 2 X
    
    Chorus 3
    
    Gtr 1. (02:48 s)
    |------------------------------------------------------------------------|
    |------------------------------------------------------------------------|
    |-10-10-10-10-10-10-10-10-10-10-8-8-8-8-8-8-8-8-8-8-6-6-6-6-6-6-6-6-6-6--|
    |-10-10-10-10-10-10-10-10-10-10-8-8-8-8-8-8-8-8-8-8-6-6-6-6-6-6-6-6-6-6--|
    |-8--8--8--8--8--8--8--8--8--8--6-6-6-6-6-6-6-6-6-6-4-4-4-4-4-4-4-4-4-4--|
    |------------------------------------------------------------------------|
    
    |---------------------|
    |---------------------|
    |-8-8-8-8-8-8-8-8-8-8-|
    |-8-8-8-8-8-8-8-8-8-8-|
    |-6-6-6-6-6-6-6-6-6-6-| ----- Play This 6X till The End
    |---------------------|
    
    Gtr 2.
    |------------------------------------------------------------------------|
    |------------------------------------------------------------------------|
    |------10----------------------------8--------------------6--------------|
    |---10-----------------------------8--------------------6----------------|
    |-8------------------------------6--------------------4------------------|
    |------------------------------------------------------------------------|
    
    |---------------------|
    |---------------------|
    |-----8---------------|
    |---8-----------------|
    |-6-------------------|
    |---------------------| --- 4X with Delay
    
    Gtr 2. (03:21 s)
    |----------------------------------------------|
    |-9----8----9----8----9----8----9----11----13--|
    |----------------------------------------------|
    |----------------------------------------------|
    |----------------------------------------------|
    |----------------------------------------------| With Delay, After the -13- let play.
     

    Тональность:

    Нет текста!



    Назад
    Рекомендуем посмотреть другие песни исполнителя «Cold»:

    • Комментарии Facebook ()
    • Комментарии ВКонтакте



    Добавить в Избранное Браузера
    Сохранить здесь Очистить


    x

    0


    +
    -

    +
    -

    -

    Авторизация





    Зарегистрироваться

    M

    Дата и время

    • 23:15:30
       

    Социальные ссылки


    Наши приложения

    • Muzbank App Play Market
    • Muzbank Amazon App