MUZBANK



A Most Complete Bank Of Music Information

МУЗЫКАЛЬНО-ИНФОРМАЦИОННЫЙ БАНК

Поиск по сайту







    CCold • No One (аккорды и текст - chords & lyrics)


    193

    Print

    Видео «No One (Cold)»

    Видео клипы к песне подбираются автоматически сайтом youtube. Возможны некоторые несоответствия клипов песне.

    ↑ Спрятать рекламу ↑



    Download



     
    
    
    Cold 
    No one
    13 ways to bleed on stage
    Drop C Tuning
    
    Opening/Verse:
    ------------------------------------------------|
    ------------------------------------------------|
    ------------------------------------------------|
    ------------------------------------------------|
    ---9---9---10---10---10-----10---10-----9-9-9-9-|
    -0---0---0----0----0----0-8----8----0-7---------|x5)
    
    Chorus Pattern:
    ---------|
    ---------|
    ---------|
    -7-5-4---|
    -x-x-x---|
    -5-3-2---|
    
    Opening/Verse (x5)
    
    Chorus (x4)
    
    Bridge:
    Gtr 1
    -----------------------------------------------------------
    -----------------------------------------------------------
    -----------------------------------------------------------
    ------------------------------------9-9-9------------7777b-
    --7---7---7-9-10-9-7-7---7-9-101010-------1010-9-9-9-------
    0---0---0--------------0-----------------------------------
    
    Gtr 2
    ---------------------|
    ---------------------|
    ---------------------|
    -x-x----x-x-x-x------|
    -x-x----x-x-x-x------|
    -x-x----x-x-x-x-(3x--|
    feedback before muted notes
    
    Chorus (4x)
    
    Outro:
    -----------------------------------------------|
    -----------------------------------------------|
    -----------------------------------------------|
    -----------------------------------------------|
    ---9---9---10---10---10-----10---10-----9-9-9-9|
    -0---0---0----0----0----0-8----8----0-7--------|
     

    Тональность:

    Нет текста!



    Назад
    Рекомендуем посмотреть другие песни исполнителя «Cold»:

    • Комментарии Facebook ()
    • Комментарии ВКонтакте



    Добавить в Избранное Браузера
    Сохранить здесь Очистить


    x

    0


    +
    -

    +
    -

    -

    Авторизация





    Зарегистрироваться

    M

    Дата и время

    • 01:37:59
       

    Социальные ссылки


    Наши приложения

    • Muzbank App Play Market
    • Muzbank Amazon App