MUZBANK



A MOST COMPLETE BANK OF MUSIC INFORMATION

МУЗЫКАЛЬНО-ИНФОРМАЦИОННЫЙ БАНК







    CCold • She Said (аккорды и текст - chords & lyrics)


    294

    Print

    Видео «She Said (Cold)»

    Видео клипы к песне подбираются автоматически сайтом youtube. Возможны некоторые несоответствия клипов песне.

    ↑ Спрятать рекламу ↑





     
    
    
    -------------------------------------------------------------------------------
    			     SHE SAID - Cold
    -------------------------------------------------------------------------------
    
    By:Lachrymal
    
    Tuned down to Dropped Db
    
    Verse: -Played with some sort of echo effect, though you can just hit the strings at
    every echo, getting progressively lighter and make it 
    sound almost exactly the same.-
    
    Guitar 1:
    eb|---------------|
    Bb|---------------|
    Gb|---------------|
    Db|-6---7---3---2-|
    Ab|-6---7---3---2-|
    Db|-6---7---3---2-|
    
    Guitar 2:
    eb|-------------------|
    Bb|-------------------|
    Gb|-------------------|
    Db|-18---19---15---14-|
    Ab|-18---19---15---14-|
    Db|-18---19---15---14-|
    
    Chorus:
    eb|-------------------|-----------------|
    Bb|-------------------|-----------------|
    Gb|-444---------------|-----------------|
    Db|-444-5p44----------|-444-5p44-4h55-2-|
    Ab|-222-5p44-4h55-222-|-222-5p44-4h55-2-|
    Db|-----5p44-4h55-222-|-----5p44-4h55-2-|
     

    Тональность:

    Это должно быть в ТОП-листе! - Топ-лист композиций



    Назад
    Рекомендуем посмотреть другие песни исполнителя «Cold»:

    • Комменты Fb ()
    • Комменты ВК



    Добавить в Избранное Браузера
    Сохранить здесь Очистить


    x

    0


    +
    -

    +
    -

    -

    Авторизация





    Зарегистрироваться

    M

    Дата и время

    • 21:29:42
       

    Социальные ссылки


    Наши приложения

    • Muzbank App Play Market
    • Muzbank Amazon App