MUZBANK



A Most Complete Bank Of Music Information

МУЗЫКАЛЬНО-ИНФОРМАЦИОННЫЙ БАНК

Поиск по сайту







    CCold • The Day Seattle Died (аккорды и текст - chords & lyrics)


    178

    Print

    Видео «The Day Seattle Died (Cold)»

    Видео клипы к песне подбираются автоматически сайтом youtube. Возможны некоторые несоответствия клипов песне.

    ↑ Спрятать рекламу ↑



    Download



     
    
    
    Song: The Day Seattle Died
    Artist: Cold
    Album: Year of the Spider 
    Tuning: (low to high) C F Bb Eb G C
    
    Intro/Verse clean (with reverb)                                  
    |--------------------------------------------------------------|
    |------------10-----------------10-10-10----8-8-8--------------|
    |-7h9-9-9------9-9-9h10-----------------9----------7-----------|
    |--------------------------------------------------------------|
    |--------------------------------------------------------------|
    |--------------------------------------------------------------|
     
    |--------------------------------------------------------------|
    |------------10-----------------10-10-10----8-8-8-8-12h13p12---|
    |-7h9-9-9-------9-9-9h10-----------------9---------------------|
    |--------------------------------------------------------------|
    |--------------------------------------------------------------|
    |--------------------------------------------------------------|
    
    Pre-Chorus (distortion)
    |-----------------------------|
    |-10-10-10-----8-8-8----------|
    |-------------9----------7----|
    |-----------------------------|
    |-----------------------------|
    |-----------------------------|
    
    Chorus (distortion)
    |------------|
    |------------|
    |-7-11-------|
    |-7-11--11-8-|
    |-5--9--11-8-|
    |-------9--6-|
     

    Тональность:

    Нет текста!



    Назад
    Рекомендуем посмотреть другие песни исполнителя «Cold»:

    • Комментарии Facebook ()
    • Комментарии ВКонтакте



    Добавить в Избранное Браузера
    Сохранить здесь Очистить


    x

    0


    +
    -

    +
    -

    -

    Авторизация





    Зарегистрироваться

    M

    Дата и время

    • 11:07:31
       

    Социальные ссылки


    Наши приложения

    • Muzbank App Play Market
    • Muzbank Amazon App