MUZBANK



A Most Complete Bank Of Music Information

МУЗЫКАЛЬНО-ИНФОРМАЦИОННЫЙ БАНК

Поиск по сайту







    CColdplay • Sparks (аккорды и текст - chords & lyrics)


    416

    Print

    Видео «Sparks (Coldplay)»

    Видео клипы к песне подбираются автоматически сайтом youtube. Возможны некоторые несоответствия клипов песне.

    ↑ Спрятать рекламу ↑



    Download


     
    
    
    Coldplay - Sparks 
    The best bass part on the album. 
    Intro: 
    
    G|------------- 
    D|-----------3- 
    A|-4-6-4---1--- 
    E|-------4----- 
    
    Verse: 
    
    G|--------------------------------- 
    D|----------------------6-----6---- 
    A|-461--461-6--48--684---64--6---64 
    E|---------1----------------------- 
    
    Chorus: (say aaaaah........) 
    
    G|---------------------------------- 
    D|--------------------------------3- 
    A|-64-11-33-44-66-1---11-33-44-66--- 
    E|---------------------------------- 
    
    Structure: 
    
    Intro x4 
    Verse x1 
    Chorus x1 
    Intro x4 
    Verse x1 
    Chorus x1 
    Intro x4 
    
    Submitted by Adam Sewell.
     

    Тональность:

    Нет текста!



    Назад
    Рекомендуем посмотреть другие песни исполнителя «Coldplay»:

    • Комментарии Facebook ()
    • Комментарии ВКонтакте



    Добавить в Избранное Браузера
    Сохранить здесь Очистить


    x

    0


    +
    -

    +
    -

    -

    Авторизация





    Зарегистрироваться

    M

    Дата и время

    • 19:05:03
       

    Социальные ссылки


    Наши приложения

    • Muzbank App Play Market
    • Muzbank Amazon App