MUZBANK



A Most Complete Bank Of Music Information

МУЗЫКАЛЬНО-ИНФОРМАЦИОННЫЙ БАНК

Поиск по сайту







    CCollective Soul • Crowded Head (аккорды и текст - chords & lyrics)


    238

    Print

    Видео «Crowded Head (Collective Soul)»

    Видео клипы к песне подбираются автоматически сайтом youtube. Возможны некоторые несоответствия клипов песне.

    ↑ Спрятать рекламу ↑



    Download


     
    
    
    Intro/outro
    
    G|-----------------------(18)----------------------------------|
    D|-----(16)h(18)(16)(16)------------(16)h(18)(16)(16)----------|
    A|-------------------------------------------------------------|
    E|--9----------------------------9-----------------------------|  x2
    
    Verse
    
    G|-------------------------------------------------------------|
    D|-------------------------------------------------------------|
    A|----45-------------------------------------------------------|
    E|--5----5--220000--220000--220000--220000---------------------|  x2
    
    Chorus/Breakdown
    
    G|-------------------------------------------------------------|
    D|-------------------------------------------------------------|
    A|--2222222222222222-------------------------------------------|
    E|-------------------0000000000000000--------------------------|
    
    Bridge
    
    G|--------------------------------------------------------------------|
    D|--------------------------------------------------------------------|
    A|------------------22222222222/(14)(14)(14)(14)(14)(12)--------------|
    E|--44--44--55--55--------------------------------------(14)(12)(13)--|
    
    continued
    G|--------------------------------------------------------------|
    D|--------------------------------------------------------------|
    A|------------------2-------------------------------------------|
    E|--44--44--55--55----------------------------------------------|
    
    
    That gets me through it with no complaints, but if there is an easier way or a better 
    to play it, feel free to correct.  manof3200@msn.com
     

    Тональность:

    Нет текста!



    Назад
    Рекомендуем посмотреть другие песни исполнителя «Collective Soul»:

    • Комментарии Facebook ()
    • Комментарии ВКонтакте



    Добавить в Избранное Браузера
    Сохранить здесь Очистить


    x

    0


    +
    -

    +
    -

    -

    Авторизация





    Зарегистрироваться

    M

    Дата и время

    • 22:29:56
       

    Социальные ссылки


    Наши приложения

    • Muzbank App Play Market
    • Muzbank Amazon App