MUZBANK



A Most Complete Bank Of Music Information

МУЗЫКАЛЬНО-ИНФОРМАЦИОННЫЙ БАНК








    CCollective Soul • Heavy (аккорды и текст - chords & lyrics)


    350

    Print

    Видео «Heavy (Collective Soul)»

    Видео клипы к песне подбираются автоматически сайтом youtube. Возможны некоторые несоответствия клипов песне.

    ↑ Спрятать рекламу ↑



    Download


     Intro 
    G------------------------------------- 
    D------------------------------------- 
    A------------------------------------- 
    E-0-0-0-0-0-0-0-0-0-0-0-0-0-0-0-0-0-0- 
    
    Verse repeat this part, this part is also the fill 
    G------------------------------------------ 
    D------------------------------------------ 
    A------------------------------------------ 
    E-0-0-0-0-0-0-0-0h1h2-0-0-0-0-0-0-0-0h1h2h3 
    
    Play this part while he his signing 
    G------------------------------------- 
    D------------------------------------- 
    A------------------------------------- 
    E-2-2-2-2-2-2-2-2-2-2-2-2-2-2-2-2-2-2- 
    
    Chorus 
    G------------------------------------- 
    D------------------------------------- 
    A------------------------------------- 
    E-4-4-4-4-4-4-4-4-0-0-0-0-0-0-0-0-0-0- 
    
    G-------------------------------- 
    D-------------------------------- 
    A-------------------------------- 
    E-2-2-2-2-2-2-2-2-3-3-3-3-2-2-2-2 
    
    Bridge part1 This part is played when the 
    rythm guitar has a solo in the back 
    G----------------------------- 
    D----------------------------- 
    A----------------------------- 
    E-0-0-0-0-0-0-0-0-0-0-0-0-2222 
    
    Part2 
    G------------------------------------- 
    D------------------------------------- 
    A------------------------------------- 
    E-2-2-2-2-2-2-2-2-2-2-2-2-2-2-2-2-2-2- 

    Тональность:

    Нашли ошибку?



    Назад
    Рекомендуем посмотреть другие песни исполнителя «Collective Soul»:

    • Комменты Fb ()
    • Комменты ВК



    Добавить в Избранное Браузера
    Сохранить здесь Очистить


    x

    0


    +
    -

    +
    -

    -

    Авторизация





    Зарегистрироваться

    M

    Дата и время

    • 09:17:04
       

    Социальные ссылки


    Наши приложения

    • Muzbank App Play Market
    • Muzbank Amazon App