MUZBANK



A Most Complete Bank Of Music Information

МУЗЫКАЛЬНО-ИНФОРМАЦИОННЫЙ БАНК

Поиск по сайту







    CColton Graham • Runaway (аккорды и текст - chords & lyrics)


    216

    Print

    Видео «Runaway (Colton Graham)»

    Видео клипы к песне подбираются автоматически сайтом youtube. Возможны некоторые несоответствия клипов песне.

    ↑ Спрятать рекламу ↑



    Download


     
    
    
    Graham Colton - Runaway
    
    Tuning: Standard
    
    -Chaseman242
    
    INTRO:
    
    Starts out kinda like Oasis-Wonderwall...
    
    
    -3-3---3-3---3-3-----2-0-2-0--x--3-2-0-2-
    -3-3---3-3---3-3-----3-3-3-3--x--3-3-3-3-
    -0-0---0-0---0-0-----2-2-2-2--x--2-2-2-2-
    -0-0---0-0h2-0-0h2---x-x-x-x--x--x-x-x-x-
    -2-2---2-0---2-0--------------x----------
    -2-2---3-3---3-3--------------x----------  repeat
    
    Listen for the rhythm and stumming.. he tends to play alot on the high end..
    
    The rest of the song will pretty much follow this exact thing, with a couple 
    
    hammer ons... and this:
    
    -3-3---3-3-
    -3-3---3-3-
    -0-0---0-0-
    -0-0---0-0-
    -2-2---2-2-
    -3-3---2-2-  repeat up top variations
    
    All of his songs are variations of the G chords and D chords
    
    Changes? - chaseman242@hotmail.com
     

    Тональность:

    Нет текста!



    Назад

    • Комментарии Facebook ()
    • Комментарии ВКонтакте



    Добавить в Избранное Браузера
    Сохранить здесь Очистить


    x

    0


    +
    -

    +
    -

    -

    Авторизация





    Зарегистрироваться

    M

    Дата и время

    • 18:46:36
       

    Социальные ссылки


    Наши приложения

    • Muzbank App Play Market
    • Muzbank Amazon App