MUZBANK



A Most Complete Bank Of Music Information

МУЗЫКАЛЬНО-ИНФОРМАЦИОННЫЙ БАНК

Поиск по сайту







    CCooper Alice • Poison (аккорды и текст - chords & lyrics)


    694

    Print

    Видео «Poison (Cooper Alice)»

    Видео клипы к песне подбираются автоматически сайтом youtube. Возможны некоторые несоответствия клипов песне.

    ↑ Спрятать рекламу ↑



    Download


     
    
    
    Poison by Alice Cooper
    Standard Tuning
    
    (Intro)
    G:-----------|
    D:-----------|
    A:5-5----5-5-|
    E:-----------|
    
    (During Solo)
    G:-----------------|
    D:-----------------|
    A:--5--8--5---5--8-|
    E:6---------6------|
    
    G:----------------------|
    D:----------------------|
    A:1--1-----------1--1-5-|
    E:-----1-0--3--3--------|
    
    G:---------------------------------------|
    D:-----1------------1--------------------|
    A:1-------1---3-------1------3---5---3---|
    E:---1-----------4------5--1---3---6---3-|
    
    (Chorus)
    G:---------------|
    D:---2-3---3-2---|  X4
    A:5------1-------|
    E:---------------|
    
    G:------------|
    D:------------|
    A:1~----------|
    E:------------|
    
    G:------------------------|
    D:------------------------|
    A:5-1---3-5---1-5-5-5-5-5-|
    E:----1-----1-------------|
    
    G:---------------------------------------|
    D:-----1------------1--------------------|
    A:1-------1---3-------1------3---5---3---|
    E:---1-----------4------5--1---3---6---3-|
    
    G:---------------|
    D:---2-3---3-2---|  X4
    A:5------1-------|
    E:---------------|
    
    G:------------|
    D:------------|
    A:1~----------|
    E:------------|
    
    (During Solo)
    G:------------------------|
    D:------------------------|
    A:5-1---3-5---1-5-5-5-5-5-|
    E:----1-----1-------------|
    
    (Bridge)
    G:----------------|
    D:----------------|
    A:5-----5-5-5-5-5-|
    E:--6-1-----------|
    
    G:---------------------------------------|
    D:-----1------------1--------------------|
    A:1-------1---3-------1------3---5---3---|
    E:---1-----------4------5--1---3---6---3-|
    
    (Chorus)
    G:---------------|
    D:---2-3---3-2---|  X4
    A:5------1-------|
    E:---------------|
    
    G:------------|
    D:------------|
    A:5-5-5-5-5-5-|
    E:------------|
    
    G:------------------|
    D:---2-3---3-2  X12-|
    A:5------1----------|
    E:------------------|
    
    Thanks, please rate after you learn it.
    Tabbed by:
    _TheBassist01_
     

    Тональность:

    Нет текста!



    Назад
    Рекомендуем посмотреть другие песни исполнителя «Cooper Alice»:

    • Комментарии Facebook ()
    • Комментарии ВКонтакте



    Добавить в Избранное Браузера
    Сохранить здесь Очистить


    x

    0


    +
    -

    +
    -

    -

    Авторизация





    Зарегистрироваться

    M

    Дата и время

    • 17:42:17
       

    Социальные ссылки


    Наши приложения

    • Muzbank App Play Market
    • Muzbank Amazon App