MUZBANK



A Most Complete Bank Of Music Information

МУЗЫКАЛЬНО-ИНФОРМАЦИОННЫЙ БАНК

Поиск по сайту







    CCpm 22 • Anteontem (аккорды и текст - chords & lyrics)


    185

    Print

    Видео «Anteontem (Cpm 22)»

    Видео клипы к песне подбираются автоматически сайтом youtube. Возможны некоторые несоответствия клипов песне.

    ↑ Спрятать рекламу ↑



    Download



     
    
    
    -------------------------------------------------------------------------------
                                     ANTEONTEM - CPM 22
    -------------------------------------------------------------------------------
    
    Tablatura feita por:										
    											
    SГО BERNARDO										
    BRASIL											
    
    INTRO: 2x										
    e |------------------------------------|							
    B |------------------------------------|						
    G |-----10--9------10--9-----10--9--12-|						
    D |-10--10--9--10--10--9--7--10--9--12-|							
    A |-10---8--7--10---8--7--7---8--7--10-|							
    E |--8----------8---------5------------|						
    
    VERSO: 4x										
    e |------------------------------------|
    B |------------------------------------|
    G |-5-----7--10------------------------|
    D |-5--5--7--10------------------------|
    A |-3--5--5---8------------------------|
    E |----3-------------------------------|
    
    Estava тго triste quando vоск me disse que havia algo errado entre nуs
    Meu mundo girava e o seu controlava o que havia de errado no meu
    Eu descia as escadas, as velhas escadas, sem medo de olhar o que eu deixei pra тrбs
    Eu continuo do mesmo lado e nго vou mudar minha орiniго
    
    SOLO 1: 4x
    e |------------------------------------|
    B |------------------------------------|
    G |------------------------------------|
    D |-2/3--2/3--5--5--5--5---------------|
    A |------------------------------------|
    E |------------------------------------|
    
    VERSO: 4x
    e |------------------------------------|
    B |------------------------------------|
    G |-5-----7--10------------------------|
    D |-5--5--7--10------------------------|
    A |-3--5--5---8------------------------|
    E |----3-------------------------------|
    
    Ткnis furado e alguns trocados, rеlуgiо quebrado e роluiзго
    Eu sentia em minha volta a dor da derrota quem foi que escolheu...
    
    Sobre os meus рrурriоs passos vou caminhar
    Sobre os meus рrурriоs passos nunca mais vou errar	
    
    SOLO 2: 2x
    e |------------------------------------|
    B |------------------------------------|
    G |-5--4-----5--4----------------------|
    D |-------5--------3-------------------|
    A |------------------------------------|
    E |------------------------------------|
    
    PONTE: 2x
    e |------------------------------------|
    B |------------------------------------|
    G |-5--4-----5--4----------------------|
    D |-5--4--5--5--4--3-------------------|
    A |-3--2--5--3--2--3-------------------|
    E |-------3--------1-------------------|
    
    VERSO: 6x
    e |------------------------------------|
    B |------------------------------------|
    G |-5-----7--10------------------------|
    D |-5--5--7--10------------------------|
    A |-3--5--5---8------------------------|
    E |----3-------------------------------|
    
    Sobre os meus рrурriоs passos vou caminhar
    Sobre os meus рrурriоs passos nunca mais vou errar	
    
    SOLO 3: 2x
    e |------------------------------------------------------------------------------------|
    B |------------------------------------------------------------------------------------|
    G |-------------------------------------------------------------------5--4-------------|
    D |-2/3--2/3--5--5--5--5--2/3--2/3--5--5--5--5--2/3--2/3--5--5--5--5--------5--5--5--5-|
    A |------------------------------------------------------------------------------------|
    E |------------------------------------------------------------------------------------|
    
    -------------------------------------------------------------------------------
     

    Тональность:

    Нет текста!



    Назад
    Рекомендуем посмотреть другие песни исполнителя «Cpm 22»:

    • Комментарии Facebook ()
    • Комментарии ВКонтакте



    Добавить в Избранное Браузера
    Сохранить здесь Очистить


    x

    0


    +
    -

    +
    -

    -

    Авторизация





    Зарегистрироваться

    M

    Дата и время

    • 07:35:20
       

    Социальные ссылки


    Наши приложения

    • Muzbank App Play Market
    • Muzbank Amazon App