MUZBANK



A Most Complete Bank Of Music Information

МУЗЫКАЛЬНО-ИНФОРМАЦИОННЫЙ БАНК

Поиск по сайту







    CCpm 22 • Anteontem (аккорды и текст - chords & lyrics)


    214

    Print

    Видео «Anteontem (Cpm 22)»

    Видео клипы к песне подбираются автоматически сайтом youtube. Возможны некоторые несоответствия клипов песне.

    ↑ Спрятать рекламу ↑



    Download



     
    
    
    Anteontem - CPM 22
    por Livia 
    
    Intro
    G-------------------------------
    D-------------------------------
    A-3333...--8-7-3-8-7---8-7-10---
    E--------------------5----------
    
    Verso
    G------------------------------------------
    D------------------------------------------
    A-33333333----------555555-77-8888-8-7-5-3-
    E----------33333333------------------------
    
    Rеfrго (parte 1)
    G-------------
    D-------------
    A-3>--5>-8>---
    E---3>--------
    
    Rеfrго (parte 2)
    G--------------------------------------
    D--------------------------------------
    A-33333333----------55555555-88888888--
    E----------33333333--------------------
    
    Bridge 
    G---------------------------
    D---------------------------
    A-3-2---3-2---3-2---3-2-----
    E-----3-----1-----3-----1---
     

    Тональность:

    Нет текста!



    Назад
    Рекомендуем посмотреть другие песни исполнителя «Cpm 22»:

    • Комментарии Facebook ()
    • Комментарии ВКонтакте



    Добавить в Избранное Браузера
    Сохранить здесь Очистить


    x

    0


    +
    -

    +
    -

    -

    Авторизация





    Зарегистрироваться

    M

    Дата и время

    • 14:48:39
       

    Социальные ссылки


    Наши приложения

    • Muzbank App Play Market
    • Muzbank Amazon App