MUZBANK



A Most Complete Bank Of Music Information

МУЗЫКАЛЬНО-ИНФОРМАЦИОННЫЙ БАНК

Поиск по сайту







    CCpm 22 • Desconfio (аккорды и текст - chords & lyrics)


    218

    Print

    Видео «Desconfio (Cpm 22)»

    Видео клипы к песне подбираются автоматически сайтом youtube. Возможны некоторые несоответствия клипов песне.

    ↑ Спрятать рекламу ↑



    Download


     
    
    
    CPM 22
    Desconfio
    
    Verse:
    G|-----------------------------------------------------------------------------------|
    D|-----------------------------------------------------------------------------------|
    A|-5--5-5-5-5-5-5-5------------------2--2--2--2--------------------------------------|
    E|------------------3--3-3-3-3-3-3-3-------------5--5--5--5--3--3--3--3--3--3--3--3--|
    
    Pre-Chorus:
    G|---------------------------------|
    D|---------------------------------|
    A|-.-.-.-.-.-.-.-.-.-.-.-.-5-5-5-5-|
    E|-5-5-5-5-5-5-5-5-3-3-3-3---------| 2x
    
    G|--------------------|
    D|--------------------|
    A|-.-.-.-.-.-.-.-.----|
    E|-5-5-5-5-5-5-5-5-3~-|
    
    Chorus
    G|--------------------------------|
    D|--------------------------------|
    A|-5--5-5-5-------2-2-2-2---------|
    E|----------3--333--------5-5-5-5-| 4x
    
    Bridge
    G|-------------------|
    D|-------------------|
    A|-5-5-4h5-5-4h5-5-5-|
    E|-------------------|
    
    Solo
    G|-------------------------------------|
    D|-------------------------------------|
    A|-------------------5--5-5-5-5--5-5-5-|
    E|-0--0-0-0-3--3-3-3-------------------| 3x
    
    G|---------------------------------------------------------|
    D|---------------------------------------------------------|
    A|-------------------5--5-5-5-5--5-5-5-5--5-5-5-5--5-5-5-5-|
    E|-0--0-0-0-3--3-3-3---------------------------------------|
    
    End
    G|---------------------------|
    D|---------------------------|
    A|-7---5----------7---5------|
    E|---------5~-------------5~-|
     

    Тональность:

    Нет текста!



    Назад
    Рекомендуем посмотреть другие песни исполнителя «Cpm 22»:

    • Комментарии Facebook ()
    • Комментарии ВКонтакте



    Добавить в Избранное Браузера
    Сохранить здесь Очистить


    x

    0


    +
    -

    +
    -

    -

    Авторизация





    Зарегистрироваться

    M

    Дата и время

    • 23:42:08
       

    Социальные ссылки


    Наши приложения

    • Muzbank App Play Market
    • Muzbank Amazon App