MUZBANK



A Most Complete Bank Of Music Information

МУЗЫКАЛЬНО-ИНФОРМАЦИОННЫЙ БАНК

Поиск по сайту







    CCradle Of Filth • Babalon Ad So Glad For The Madne (аккорды и текст - chords & lyrics)


    394

    Print

    Видео «Babalon Ad So Glad For The Madne (Cradle Of Filth)»

    Видео клипы к песне подбираются автоматически сайтом youtube. Возможны некоторые несоответствия клипов песне.

    ↑ Спрятать рекламу ↑



    Download


     
    
    
    ----------------------------------------------------------------------------
    	 Babalon A.D.(So Glad For The Madness) - Cradle of Filth
    ----------------------------------------------------------------------------
    Tabbed by:dorris
    Email:cleandirt2001@hotmail.com
    
    Comments:im the only one to put it on here so there!
    
    Intro                                                               
    |------------------------------|
    |------------------------------|
    |------------------------------|
    |--4---3---4---0-1-4---3---6-6-|
    |--4---3---4---0-1-4---3---6-6-|
    |--4---3---4---0-1-4---3---6-6-|
    
    Riff 1
    
    |------|      |----------------| x3 |-------------|
    |------|      |----------------|    |-------------|
    |------|      |----------------|    |-------------|
    |-10-9-|      |-9-10-7-9--109-|    |-5-4-5-4-5-7-|
    |-10-9-|      |-9-10-7-9--109-|    |-5-4-5-4-5-7-|
    |-10-9-|      |-9-10-7-9-------|    |-5-4-5-4-5-7-|
    
    Riff 2
    
    With these, hammer on and pull off the fret shown up until
    the last 8 notes which you play normally
                                                            x2
    |------------------------------------------|                    
    |------------------------------------------|
    |-10-7-7-7-9-7-7-7-10-7-7-7-7-7-10-12-10-9-|
    |------------------------------------------|
    |------------------------------------------|
    |------------------------------------------|         
    
    |--------------------------------------------|
    |--------------------------------------------|
    |-10-7-7-7-9-7-7-7-10-7-7-7-10-9-7-6---------|
    |--------------------------------------------|
    |------------------------------------8-7-5-4-|
    |--------------------------------------------|
    
    End of Riff 2
    
    |-------| |-------|
    |-------| |-------|
    |---3---| |-------|
    |---3---| |---5---|
    |---1---| |---5---|
    |-------| |---5---|
     1st time    2nd time
    
    Riff 3
    
    Listen to the song to get the correct rhythm for playing these chords
    
    |----------------------------|
    |----------------------------|
    |----------------------------|
    |-5---8---5---8-3-6----------|
    |-5---8---5---8-3-6----------|
    |-5---8---5---8-3-6----------|
    
    
    Riff 4
    
    Same method as Riff 2, hammer on and pull off all the notes shown
    
    |--------------------------------------------------------------------|
    |--------------------------------------------------------------------|
    |--------------------------------------------------------------------|
    |---7---7---9---10---7---7---9-10-12---7---7---9---10---9---9---6---6|
    |--------------------------------------------------------------------|
    |--------------------------------------------------------------------|
    
    |----------------------------------------|
    |----------------------------------------|
    |----------------------------------------|
    |--6-x-x-6-x-x-6/764/6-x-x-------------|
    |--6-x-x-6-x-x-6/764/6-x-x---3-2---3-2-|
    |--6-x-x-6-x-x-6/764/6-x-x-3-----3-----|
    
    Riff 5
    
    Hammer and pull off each note
    
    |-------------------------------10---------------------------|
    |--10--7--7--7--7--7--7--7--10------7--7--7--10--10--9--9----|
    |------------------------------------------------------------|
    |------------------------------------------------------------|
    |------------------------------------------------------------|
    |------------------------------------------------------------|
    
    Riff 6
    
    Tremolo pick all the way
    
    |-----------------------------------------------|
    |-----------------------------------------------|
    |-----10--9--10--7--9--10-----9--10------9--10--|
    |--7-----------------------8---------10---------|
    |-----------------------------------------------|
    |-----------------------------------------------|
    
    |-----------------------------------------------|
    |--------------------------------------------8--|
    |-----10--12--7--9--10-----9--10------9--10-----|
    |--7--------------------8---------10------------|
    |-----------------------------------------------|
    |-----------------------------------------------|
    
    Riff 7
    
    |----------------------------------------------------------------------|
    |----------------------------------------------------------------------|
    |----------------------------------------------------------------------|
    |-------------------------------------------------------------------6--|
    |-------------------------------------------------3t--6t--5t-6t-5t--6--|
    |-3-2-0-6-5-0-3-0-3-2-0-8-7-0-3-0-3-2-0-6-5-0-3-0-------------------6--|
    
    Play this harmonic at the end of Riff 7 (just before the heartbeat sound}
    
    |-------------|
    |-------------|
    |-------------|
    |-------------|
    |-------------|
    |--2.5*-------|
    
    Outro - same as Intro
    
    Order of song
    
    Intro
    Riff 1       Riff 6
    Riff 2       Riff 7
    Riff 3       Riff 1
    Riff 4       Riff 6
    Riff 1       Outro
    Riff 2
    Riff 5
    
    
    THERE YA GO!
    
    | /  slide up
    |   slide down
    | h  hammer-on
    | p  pull-off
    | ~  vibrato
    | +  harmonic
    | x  Mute note
    ============================================================================
     

    Тональность:

    Нет текста!



    Назад
    Рекомендуем посмотреть другие песни исполнителя «Cradle Of Filth»:

    • Комментарии Facebook ()
    • Комментарии ВКонтакте



    Добавить в Избранное Браузера
    Сохранить здесь Очистить


    x

    0


    +
    -

    +
    -

    -

    Авторизация





    Зарегистрироваться

    M

    Дата и время

    • 10:55:17
       

    Социальные ссылки


    Наши приложения

    • Muzbank App Play Market
    • Muzbank Amazon App